Soil
System of a Down
Acordes

Subida por Adoro
Álbum: System of a Down ( 1998)


Más Versiones
Ver. 2 Ver. 3 Ver. 4 Ver. 5 Ver. 6

Cambiar Cifrado
Americano Latino

Cambiar Tonalidad
-1 +1

Partir Pantalla Imprimir FAQ

+A
-A


Ver solo la LETRA
Afinação(C,G,C,F,A,D)


D|-----|
A|--10-|
F|--10-|
C|--10-|
G|--8--|
C|-----|

D|-----------------------------------------------|
A|-----------------------------------------------|
F|-----------------------------------------------| 4X
C|-----------------------------------------------|
G|--3-1-0-0-3-3-1-0-0-0-0-3-1-0-0-3-3-1-4-4-4-4--|
C|--3-1-0-0-3-3-1-0-0-0-0-3-1-0-0-3-3-1-4-4-4-4--|

D|---------------------------------------------|
A|---------------------------------------------|
F|---------------------------------------------| 8X
C|---------------------------------------------|
G|---------------------------------------------|
C|--3-1-0-0-3-3-1-0-0-3-1-0-0-3-3-1-0-4-4-4-4--|

D|------------------------|
A|------------------------|
F|------------------------|
C|------------------------|
G|--0--0--10/12-12-12-12--|
C|--0--0--10/12-12-12-12--|

D|-----------------------------------------|
A|-----------------------------------------|
F|-----------------------------------------| 4X
C|-----------------------------------------|
G|--3-1-0-0-3-3-1-0-0-0-0-3-1-0-0-3-3-1-4--|
C|--3-1-0-0-3-3-1-0-0-0-0-3-1-0-0-3-3-1-4--|

D|---------------------------------------------------------------------------------|
A|-----9--9-9-9--9-9-9--9-9-9-9-9-9-----12--12-12-12--12-12-12--12-12-12-12-12-12--|
F|-----x--x-x-x--x-x-x--x-x-x-x-x-x-----x---x--x--x---x--x--x---x--x--x--x--x--x---|
C|-----6--6-6-6--6-6-6--6-6-6-6-6-6-----9---9--9--9---9--9--9---9--9--9--9--9--9---|
G|---------------------------------------------------------------------------------|
C|--0--------------------------------0---------------------------------------------|

D|--------------------------------------------------13-13-13-13-13-13-13-13-13-13-13-13-13--|
A|----11--11-11-11--11-11-11--11-11-11-11-11-11-----13-13-13-13-13-13-13-13-13-13-13-13-13--|
F|----x---x--x--x---x--x--x---x--x--x--x--x--x------13-13-13-13-13-13-13-13-13-13-13-13-13--|
C|----8---8--8--8---8--8--8---8--8--8--8--8--8----------------------------------------------|
G|------------------------------------------------------------------------------------------|
C|--0--------------------------------------------0------------------------------------------|

D|---------------------------------------------|
A|---------------------------------------------|
F|---------------------------------------------| 8X
C|---------------------------------------------|
G|---------------------------------------------|
C|--3-1-0-0-3-3-1-0-0-3-1-0-0-3-3-1-0-4-4-4-4--|

D|------------------------|
A|------------------------|
F|------------------------|
C|------------------------|
G|--0--0--10/12-12-12-12--|
C|--0--0--10/12-12-12-12--|

D|-----------------------------------------|
A|-----------------------------------------|
F|-----------------------------------------| 4X
C|-----------------------------------------|
G|--3-1-0-0-3-3-1-0-0-0-0-3-1-0-0-3-3-1-4--|
C|--3-1-0-0-3-3-1-0-0-0-0-3-1-0-0-3-3-1-4--|

D|-------------------------------------------------------------------------------------|
A|-------------------------------------------------------------------------------------|
F|-------------------------------------------------------------------------------------|
C|-------------------------------------------------------------------------------------|
G|--0--0----0--0----0--0----0----0----0----0----0-0----0-0----0-0----0----0----0----0--|
C|--0--0----0--0----0--0----0----0----0----0----0-0----0-0----0-0----0----0----0----0--|

D|-------------------------------------------------|
A|--------------------------------15~---------15~--|
F|-------------------------------------------------| 4X
C|--12--12-12-12--12-12-12--12-12------12-12-------|
G|-------------------------------------------------|
C|-------------------------------------------------|

D|--------------| Repete
A|--15-15-15-15-| quantas
F|--------------| vezes
C|--------------| for
G|--------------| necessário.
C|--------------|

D|---10----10-12-13---12-13-15------|-10-12-13------|
A|---10------------------------10br-|----------10br-|
F|---10-----------------------------|---------------|
C|----------------------------------|---------------|
G|-0--------------------------------|---------------|
C|-0--------------------------------|---------------|

Solo

D|-----------------------------------------------------x-------------------------|
A|-----------------------------------------------------x-------------------------|
F|-----------------------------------------------------x-------------------x--x-x| 2X
C|------3-------3-------3-------3-------3------3-------x3-------3----------x--x-x|
G|--3-5---5-3-5---5-3-5---5-3-5---5-3-5--5-3-5---5-3-5-x--5-3-5---5-3-5~---x--x-x|
C|-----------------------------------------------------x-------------------------|

D|----------------------------------------------------------------------------------------|
A|--------------------------------------------------------------------------------------10|
F|--------10----------10----------10----------10----------10----------10----------10-12---|
C|--10-12----12-10-12----12-10-12----12-10-12----12-10-12----12-10-12----12-10-12---------|
G|----------------------------------------------------------------------------------------|
C|----------------------------------------------------------------------------------------|

D|--------------------------x-x-10-10-10-x-x-10-10-10-x-x-10-10-10--|
A|--------13--13~-12--------x-x-10-10-10-x-x-10-10-10-x-x-10-10-10--|
F|--12-10------------10--10-x-x-10-10-10-x-x-10-10-10-x-x-10-10-10--|
C|--------------------------x-x-10-10-10-x-x-10-10-10-x-x-10-10-10--|
G|------------------------------------------------------------------|
C|------------------------------------------------------------------|

D|--------------------------------15~--15-15-15-15~--15-15-15-15~--|
A|--------------10--------13~--13----------------------------------|
F|--------10-12-----12-10------------------------------------------|
C|--10-12----------------------------------------------------------|
G|-----------------------------------------------------------------|
C|-----------------------------------------------------------------|

D|---------------|-----------------|-----------------|-----------|
A|---------------|-----------------|-----------------|-----------|
F|---------------|-----------------|-----------------|-----------|
C|-/10-10-9-7-6--|-/10-10-10-11-10-|-/10-10-14-13-11-|-/10-9-7-6-|
G|-/9--9--8-6-5--|-/9--9--9--10-9--|-/9--9--13-12-10-|-/9--8-6-5-|
C|---------------|-----------------|-----------------|-----------|


(palhetando rápido)
D|--------------------------------------------------------------|
A|--------------------------------------------------------------|
F|-12-11-8-7-8-11-12-11-12-15-14-12-11-8-7----------------------|
C|--------------------------------------------------------------|
G|--------------------------------------------------------------|
C|--------------------------------------------------------------|

D|----------------------------19-18-----------------------------|
A|-20-19-16-15-16-19-20-19-20-------20-19-16-15-----------------|
F|--------------------------------------------------------------|
C|--------------------------------------------------------------|
G|--------------------------------------------------------------|
C|--------------------------------------------------------------|

depois repete
D|---------------------|
A|---------------------|
F|---------------------|
C|--3-1-0-3-1-0-0--0-0-|
G|--3-1-0-3-1-0-0--0-0-|
C|--3-1-0-3-1-0-0--0-0-|



Letra:

THE PHOENIX HE HELPED CREATE,
OUT OF CONTROL BOY WITHOUT A DAD,
SHOT THE GUN THAT STARTLED MY LIFE,
WHILE I DROVE HIM WITH A FORTY-FIVE.

FRIENDS FOR YEARS IMAGES IN RED,
BLEW OFF HIS OWN MOTHER-FUCKIN HEAD,
CONFIDENCE, DEATH, INSECURITY,
MEN FALL UNREALIZED,
UNREALIZED, UNREALIZED.

MAKING A DECISION OF DEATH,
WHILE EVERYONE AROUND YOU PLED,
NOW YOU FLY IN PEACE,
I HOPE, MY FRIEND,
A MAN CAN'T AVOID WHAT HE'S MEANT TO DO,
WHEN HE'S MEANT TO DO IT,
EVEN IF HE DOESN'T REALLY WANT TO,
MY MEMORIES ARE OF FUN AND FRIENDSHIP,
OF WEAKNESS WITHIN THE STRENGTH OF YOUTH,
FOR REASONS UNDEFINED, REASONS UNDEFINED,
REASONS UNDEFINED, REASONS UNDEFINED.

FRIENDS FOR YEARS IMAGES IN RED,
BLEW OFF HIS OWN MOTHER-FUCKIN HEAD,
CONFIDENCE, DEATH, INSECURITY,
MEN FALL UNREALIZED,

DON'T YOU REALIZE,
EVIL, LIVES IN THE MOTHER-FUCKIN SKIN,
DON'T YOU REALIZE,
EVIL, LIVES IN THE MOTHER-FUCKIN SKIN,

UNREALIZED, UNREALIZED.

DON'T YOU, REALIZE, EVIL,
LIVES IN THE MOTHER-FUCKING SKIN,
DON'T YOU, REALIZE , THAT EVIL,
LIVES IN THE MOTHER-FUCKING.

ACORDES PARA GUITARRA

PIANO UKELELE


COMENTARIOS

Aún no hay comentarios,

¡escribe el primero!

Escribe una pregunta, duda o comentario sobre esta canción, te responderemos a la brevedad.

Las más tocadas de System of a Down

Toca una Canción al Azar de System of a Down