Spiders
System of a Down
Acordes

Subida por Taty
Álbum: System of a Down ( 1998)


Más Versiones
Ver. 2 Ver. 3 Ver. 4 Ver. 5 Ver. 6

Cambiar Cifrado
Americano Latino

Cambiar Tonalidad
-1 +1

Partir Pantalla Imprimir FAQ

+A
-A


Ver solo la LETRA
Afinação: C G C F A D

[Intro]

E5 D5
D|------------------------------------------|
A|------------------------------------------|
F|------------------------------------------|
C|------------------------------------------|
G|---7---7----5---5---5---------------------|
C|-0---0----0---0---0---0-------------------|

E5 D5
D|------------------------------------------|
A|------------------------------------------|
F|------------------------------------------|
C|------------------------------------------|
G|---7---7----5---5---5---------------------|
C|-0---0----0---0---0---0-------------------|

F5 E5 G5 F5
D|------------------------------------------|
A|------------------------------------------|
F|------------------------------------------|
C|------------------------------------------|
G|---8---7---10---8---7h8-------------------|
C|-0---0---0----0---0-----------------------|

E5 D5
D|------------------------------------------|
A|------------------------------------------|
F|------------------------------------------|
C|------------------------------------------|
G|---7---7----5---5---5---------------------|
C|-0---0----0---0---0---0-------------------|

[Primeira Parte]

E5 D5
D|------------------------------------------|
A|------------------------------------------|
F|------------------------------------------|
C|------------------------------------------|
G|---7---7----5---5---5---------------------|
C|-0---0----0---0---0---0-------------------|

E5 D5
D|------------------------------------------|
A|------------------------------------------|
F|------------------------------------------|
C|------------------------------------------|
G|---7---7----5---5---5---------------------|
C|-0---0----0---0---0---0-------------------|

F5 E5 G5 F5
D|------------------------------------------|
A|------------------------------------------|
F|------------------------------------------|
C|------------------------------------------|
G|---8---7---10---8---7h8-------------------|
C|-0---0---0----0---0-----------------------|

E5 D5
D|------------------------------------------|
A|------------------------------------------|
F|------------------------------------------|
C|------------------------------------------|
G|---7---7----5---5---5---------------------|
C|-0---0----0---0---0---0-------------------|

E5 D5
The piercing radiant moon
E5 D5
The storming of poor June
F5 E5 G5 F5 E5 D5
All the life running through her hair

E5 D5
Approaching guiding light
E5 D5
Our shallow years in fright
F5 E5 G5 F5 E5 D5
Dreams are made winding through my head

[Refrão]

C5
D|------------------------------------------|
A|------------------------------------------|
F|------------------------------------------|
C|-10--10--10-10--10--10-10-10--10-10-------|
G|-10--10--10-10--10--10-10-10--10-10-------|
C|-10--10--10-10--10--10-10-10--10-10-------|

D|------------------------------------------|
A|------------------------------------------|
F|------------------------------------------|
C|-10-10--10-10--10-10-10-10----------------|
G|-10-10--10-10--10-10-10-10----------------|
C|-10-10--10-10--10-10-10-10----------------|

D5
D|------------------------------------------|
A|------------------------------------------|
F|---14---12---15---14---12/14--------------|
C|------------------------------------------|
G|---12---10---13---12---10/12--------------|
C|-0----0----0----0----0--------------------|

D|------------------------------------------|
A|------------------------------------------|
F|---12---12/14---10--10-10-10-10-10-10-----|
C|------------------------------------------|
G|---10---10/12---8---8--8--8--8--8--8------|
C|-0----0-------0---------------------------|

C5
D|------------------------------------------|
A|------------------------------------------|
F|------------------------------------------|
C|-10--10--10-10--10--10-10-----------------|
G|-10--10--10-10--10--10-10-----------------|
C|-10--10--10-10--10--10-10-----------------|

Bb5 A5
D|------------------------------------------|
A|------------------------------------------|
F|------------------------------------------|
C|-8--8--8--8-8-7--7--7--7-7----------------|
G|-8--8--8--8-8-7--7--7--7-7----------------|
C|-8--8--8--8-8-7--7--7--7-7----------------|

C5 D5
Through my head
C5 Bb5 A5
Before you kno_______w, awake

( E5 D5 E5 D5 )

E5 D5
D|------------------------------------------|
A|------------------------------------------|
F|---9---9----7---7---7--7------------------|(2x)
C|------------------------------------------|
G|---7---7----5---5---5--5------------------|
C|-0---0----0---0---0-----------------------|

[Segunda Parte]

E5 D5
D|------------------------------------------|
A|------------------------------------------|
F|---9---9----7---7---7--7------------------|
C|------------------------------------------|
G|---7---7----5---5---5--5------------------|
C|-0---0----0---0---0-----------------------|

E5 D5
D|------------------------------------------|
A|------------------------------------------|
F|---9---9----7---7---7--7------------------|
C|------------------------------------------|
G|---7---7----5---5---5--5------------------|
C|-0---0----0---0---0-----------------------|

F5 E5 G5 F5
D|------------------------------------------|
A|------------------------------------------|
F|---14---12---15---14---12/14--------------|
C|------------------------------------------|
G|---12---10---13---12---10/12--------------|
C|-0----0----0----0----0--------------------|

E5 D5
D|------------------------------------------|
A|------------------------------------------|
F|---12---12/14---10--10-10-10-10-10-10-----|
C|------------------------------------------|
G|---10---10/12---8---8--8--8--8--8--8------|
C|-0----0-------0---------------------------|

E5 D5
Your lives are open wide
E5 D5
The V-chip gives them sight
F5 E5 G5 F5
Of all the life running through her hair

E5 D5
The spiders all in tune
E5 D5
The evening of the moon
F5 E5 G5 F5 E5 D5
Dreams are made winding through my head

[Refrão]

C5 D5
Through my head
C5 Bb5 A5
Before you kno_______w, awake

[Solo] D5 Eb5 Gb5
D5 Eb5 Gb5
D5 Eb5 Gb5
D5 Eb5 Gb5

D5
D|------------------------------------------|
A|------------------------------------------|
F|-14-14-14-14-14-14-14-14------------------|(4x)
C|------------------------------------------|
G|-12-12-12-12-12-12-12-12------------------|
C|------------------------------------------|

Eb5
D|------------------------------------------|
A|------------------------------------------|
F|-15-15-15-15-15-15-15-15------------------|(2x)
C|------------------------------------------|
G|-13-13-13-13-13-13-13-13------------------|
C|------------------------------------------|

Gb5
D|------------------------------------------|
A|------------------------------------------|
F|-18-18-18-18-18-18-18-18------------------|(2x)
C|------------------------------------------|
G|-16-16-16-16-16-16-16-16------------------|
C|------------------------------------------|

D5
D|------------------------------------------|
A|------------------------------------------|
F|-14-14-14-14-14-14-14-14------------------|(4x)
C|------------------------------------------|
G|-12-12-12-12-12-12-12-12------------------|
C|------------------------------------------|

Eb5
D|------------------------------------------|
A|------------------------------------------|
F|-15-15-15-15-15-15-15-15------------------|(2x)
C|------------------------------------------|
G|-13-13-13-13-13-13-13-13------------------|
C|------------------------------------------|

Gb5
D|------------------------------------------|
A|------------------------------------------|
F|-18-18-18-18-18-18-18-18------------------|(2x)
C|------------------------------------------|
G|-16-16-16-16-16-16-16-16------------------|
C|------------------------------------------|

D5
D|------------------------------------------|
A|------------------------------------------|
F|----19----19----19----19------------------|(2x)
C|------------------------------------------|
G|-17----17----17----17---------------------|
C|------------------------------------------|

Eb5
D|------------------------------------------|
A|------------------------------------------|
F|----20----20----20----20------------------|
C|------------------------------------------|
G|-18----18----18----18---------------------|
C|------------------------------------------|

Gb5
D|------------------------------------------|
A|------------------------------------------|
F|----18----18----18----18------------------|
C|------------------------------------------|
G|-16----16----16----16---------------------|
C|------------------------------------------|

D5
D|------------------------------------------|
A|------------------------------------------|
F|----19----19----19----19------------------|(2x)
C|------------------------------------------|
G|-17----17----17----17---------------------|
C|------------------------------------------|

Eb5
D|------------------------------------------|
A|------------------------------------------|
F|----20----20----20----20------------------|
C|------------------------------------------|
G|-18----18----18----18---------------------|
C|------------------------------------------|

Gb5
D|------------------------------------------|
A|------------------------------------------|
F|----18----18----18----18------------------|
C|------------------------------------------|
G|-16----16----16----16---------------------|
C|------------------------------------------|

[Refrão]

C5 D5
Through my head, through my head
C5 Bb5 A5
Before you kno_______w
C5 Bb5 A5
Before you know I will be waiting, all awake

( E5 D5 E5 D5 )
( E5 D5 E5 D5 )

F5 E5 G5 F5 E5 D5
Dreams are made winding through my head
F5 E5 G5 F5 E5 D5
Dreams are made winding through my head

ACORDES PARA GUITARRA

PIANO UKELELE
E5
D5
F5
G5
C5
Bb5
A5
Eb5
Gb5


COMENTARIOS

Aún no hay comentarios,

¡escribe el primero!

Escribe una pregunta, duda o comentario sobre esta canción, te responderemos a la brevedad.

Las más tocadas de System of a Down

Toca una Canción al Azar de System of a Down
E5
D5
F5
G5
C5
Bb5
A5
Eb5
Gb5