Sugar
System of a Down
Acordes

Subida por Salvador
Álbum: System of a Down ( 1998)


Más Versiones
Ver. 2 Ver. 3 Ver. 4 Ver. 5 Ver. 6

Cambiar Cifrado
Americano Latino

Cambiar Tonalidad
-1 +1

Partir Pantalla Imprimir FAQ

+A
-A


Ver solo la LETRA
(C G C F A D)

Riff 1:
D|---------|
A|---------|
F|---------|
C|-0-7-6-5-|
G|-0-7-6-5-|
C|-0-7-6-5-|

D|-----13--13-12----------10/----10/-----|
A|-10------------13---10-----------------|
F|---------------------------------------| (3x)
C|---------------------------------------|
G|---------------------------------------|
C|---------------------------------------|

D|------13-13~~---13-13-12-12------------10~~---10~~--10~~---10~~--|
A|10-10----------------------13-13~~--10~~---10~~--10~~--10~~---10~|
F|-----------------------------------------------------------------|
C|-----------------------------------------------------------------|
G|-----------------------------------------------------------------|
C|-----------------------------------------------------------------|

Riff 1:
D|---------|
A|---------|
F|---------|
C|-0-7-6-5-|
G|-0-7-6-5-|
C|-0-7-6-5-|

D|-----13--13-12----------10/----10/-----|
A|-10------------13---10-----------------|
F|---------------------------------------| (2x)
C|---------------------------------------|
G|---------------------------------------|
C|---------------------------------------|

D|-----13-13~~---13-13-12-12------------10~~---10~~---10~~---10~~--|
A|10-10----------------------13-13~~--10~~---10~~--10~~--10~~---10~|
F|-----------------------------------------------------------------|
C|-----------------------------------------------------------------|
G|-----------------------------------------------------------------|
C|-----------------------------------------------------------------|

Riff 1:
D|---------|
A|---------|
F|---------|
C|-0-7-6-5-|
G|-0-7-6-5-|
C|-0-7-6-5-|

(I sit,In my desolate room, No lights...)
Riff 2: Riff 3:
D|----------| D|----||-------------------------|
A|----------| A|----||-------------------------|
F|----------| (4x) F|----||-------------------------| (12x)
C|-1----1-0-| C|-1--||--0-0-1-0-1---0-0-1-0-1--|
G|-1----1-0-| G|-1--||--0-0-1-0-1---0-0-1-0-1--|
C|-1----1-0-| C|-1--||--0-0-1-0-1---0-0-1-0-1--|

D|---------|
A|---------|
F|---------|
C|-0-7-6-5-|
G|-0-7-6-5-|
C|-0-7-6-5-|
p.m......

ACORDES PARA GUITARRA

PIANO UKELELE


COMENTARIOS

Aún no hay comentarios,

¡escribe el primero!

Escribe una pregunta, duda o comentario sobre esta canción, te responderemos a la brevedad.

Las más tocadas de System of a Down

Toca una Canción al Azar de System of a Down