Tentative
System of a Down
Acordes

Subida por pajaritocantor
Álbum: Hypnotize ( 2005)


Más Versiones
Ver. 2

Cambiar Cifrado
Americano Latino

Cambiar Tonalidad
-1 +1

Partir Pantalla Imprimir FAQ

+A
-A


Ver solo la LETRA
Afinação  (Db Ab Db Gb Bb Eb) 
ou
(C# G# C# F# A# D#)
Introdução

||----------------------------|---------------------------------||
||o---------------------------|--------------------------------o||
||--12--12-----------------12-|-(12)-12-12----------------------||
||--11--11-----------------11-|-(11)-11-11----------------------||
||o-10--10-----------------10-|-(10)-10-10---------------------o||
||---------0-0-0-0-0-0-0-0----|------------0-0-0-0-0-0-0-0-0-0--||
Pre-Refrão

|-----------------|-----------------|-----------------|-----------------|
|-----------------|-----------------|-----------------|-----------------|
|-----------------|-----------------|-----------------|-----------------|
|-----------------|-----------------|-----------------|-----------------|
|-0-0---0-0-0-0-0-|-0-0---0-0-0-0-0-|-7-7---7-7-7-7-7-|-7-7---7-7-7-7-7-|
|-0-0---0-0-0-0-0-|-0-0---0-0-0-0-0-|-7-7---7-7-7-7-7-|-7-7---7-7-7-7-7-|
F5

|------------------------|------------------------|
|------------------------|------------------------|
|------------------------|------------------------|
|-10-10---10-10-10-10-10-|-10-10---10-10-10-10-10-|
|--8--8----8--8--8--8--8-|--8--8----8--8--8--8--8-|
|------------------------|------------------------|
A5

|-----------------|-----------------|
|-----------------|-----------------|
|-----------------|-----------------|
|-----------------|-----------------|
|-7-7-7-7-7-7-7-7-|-7-7-7-7-7-7-7-7-|
|-7-7-7-7-7-7-7-7-|-7-7-7-7-7-7-7-7-|
Refrão
|----------|------------|----------|--------|
|----------|------------|----------|--------|
|----------|------------|----------|--------|
|-0--------|-(0)--------|-8--------|-(8)----|
|-0--------|-(0)--------|-8--------|-(8)----|
|-0--------|-(0)--------|-8--------|-(8)----|

|----------|--------------|--------------|-------|
|----------|--------------|--------------|-------|
|----------|--------------|-10-------10--|-------|
|-7--------|-(7)------7-7-|-10-------10--|-10----|
|-7--------|-(7)------7-7-|--8--------8--|-10----|
|-7--------|-(7)------7-7-|--------------|-10----|
Essa é a parada onde começa o solo
D5

|------------------|--------------------|
|------------------|--------------------|
|------------------|--------------------|
|--0---------------|--(0)---------------|
|--0---------------|--(0)---------------|
|--0---------------|--(0)---------------|
|
|------------------|--------------------|
|------------------|--------------------|
|-------9----------|---------9----------|
|---------10-(10)--|-(10)------10-(10)--|
|------------------|--------------------|
|--0---------------|--------------------|

|----------------------|----------------------|
|----------------------|----------------------|
|-------------9-----10-|----------9------9----|
|---------------8------|---8--------8-------8-|
|----8------8-----8----|------8-------8-------|
|--8-----8-------------|--------8-------------|
A5

|---------------------|--------------------|
|---------------------|--------------------|
|------------9-----10-|----------9-----9---|
|--------------7------|---7--------7-----7-|
|--------7-------7----|--------7-----------|
|--7------------------|------7-------7-----|
|----------------------------|------------------------------|
|----------------10----------|------------------------------|
|---------10--------10----10-|------------------9-----------|
|-----10------10-------10----|----------------------7-----7-|
|---8------------------------|----------7--------------7----|
|----------------------------|---7----------7---------------|
Where do you expect us to go when the bombs fall?

|----------------------|--------------------|
|----------------------|--------------------|
|-----------9----------|---------9----------|
|-------------10-(10)--|-(10)------10-(10)--|
|----------------------|--------------------|
|--0-------------------|--------------------|

|----------------------|----------------------|
|----------------------|----------------------|
|-------------9-----10-|----------9------9----|
|---------------8------|---8--------8-------8-|
|----8------8-----8----|------8-------8-------|
|--8-----8-------------|--------8-------------|
A5

|---------------------|--------------------|
|---------------------|--------------------|
|------------9-----10-|----------9-----9---|
|--------------7------|---7--------7-----7-|
|--------7-------7----|--------7-----------|
|--7------------------|------7-------7-----|
|

|----------------------------|---------------------------|
|----------------10----------|---------------------------|
|---------10--------10----10-|----------------9----------|
|-----10------10-------10----|-------------------7-----7-|
|---8------------------------|---------7------------7----|
|----------------------------|--7----------7-------------|
Where do you expect us to go when the bombs fall?

isso repete um monte de vezes
|-----------------------------|-----------------------------|
|-----------------------------|-----------------------------|
|-10p=9-------10p==9----10p=9-|----10p==9-------10p=9----10p
|--------12----------12-------|-12----------12--------12----|
|-----------------------------|-----------------------------|
|-----------------------------|-----------------------------|
Where do you expect us to go when the bombs fall?

Verso
3x
||----------------------------|---------------------------------||
||o---------------------------|--------------------------------o||
||--12--12-----------------12-|-(12)-12-12----------------------||
||--11--11-----------------11-|-(11)-11-11----------------------||
||o-10--10-----------------10-|-(10)-10-10---------------------o||
||---------0-0-0-0-0-0-0-0----|------------0-0-0-0-0-0-0-0-0-0--||

|---------------------------|-------------------------|
|---------------------------|-------------------------|
|-12--12-----------------12-|-(12)-----12-(12)-----12-|
|-11--11-----------------11-|-(11)-----11-(11)-----11-|
|-10--10-----------------10-|-(10)-0-0-10-(10)-0-0-10-|
|--------0-0-0-0-0-0-0-0----|------0-0---------0-0----|

Refrão final
||-----------|---------------|----------|-----------------|
||o----------|---------------|----------|-----------------|
||-----------|---------------|----------|-----------------|
||--0--------|-(0)----0--0-0-|-8--------|-(8)----8-8-8-8--|
||o-0--------|-(0)----0--0-0-|-8--------|-(8)----8-8-8-8--|
||--0--------|-(0)----0--0-0-|-8--------|-(8)----8-8-8-8--|

|----------|----------------|----------------|--------||
|----------|----------------|----------------|-------o||
|----------|----------------|-10-------10-10-|--------||
|-7--------|-(7)----7-7-7-7-|-10-------10-10-|-10-----||
|-7--------|-(7)----7-7-7-7-|--8--------8--8-|-10----o||
|-7--------|-(7)----7-7-7-7-|----------------|-10-----||

|-----------|--------------|-----------------|-----------------|
|-----------|--------------|-----------------|-----------------|
|-----------|--------------|-10----10--10-10-|-----------------|
|-7----7----|-7----7-7-7-7-|-10----10--10-10-|-10----10--10-10-|
|-7----7----|-7----7-7-7-7-|--8-----8---8--8-|-10----10--10-10-|
|-7----7----|-7----7-7-7-7-|-----------------|-10----10--10-10-|

Parada do solo final
|----------------------|--------------------|
|----------------------|--------------------|
|----------------------|--------------------|
|--0-------------------|--(0)---------------|
|--0-------------------|--(0)---------------|
|--0-------------------|--(0)---------------|

|----------------------|--------------------|
|----------------------|--------------------|
|-----------9----------|---------9----------|
|-------------10-(10)--|-(10)------10-(10)--|
|----------------------|--------------------|
|--0-------------------|--------------------|

|--------------------|-------------------|
|--------------------|-------------------|
|-----------9-----10-|---------9-----9---|
|-------------8------|--8--------8-----8-|
|---8-----8-----8----|-----8-------8-----|
|-8----8-------------|-------8-----------|

|--------------------|--------------------|
|--------------------|--------------------|
|-----------9-----10-|----------9-----9---|
|-------------7------|---7--------7-----7-|
|-------7-------7----|--------7-----------|
|--7-----------------|------7-------7-----|

|-------------------|-----------------|
|-----------10------|-----------------|
|---------------10--|-----------9-----|
|-------10----------|--------------7--|
|---8---------------|-------7---------|
|-------------------|--7--------------|

Where do you expect us to go when the bombs fall? [email protected]n.com

ACORDES PARA GUITARRA

PIANO UKELELE
Db
Ab
Gb
Bb
Eb
C#
G#
F#
A#
D#
F5
A5
D5


COMENTARIOS

Aún no hay comentarios,

¡escribe el primero!

Escribe una pregunta, duda o comentario sobre esta canción, te responderemos a la brevedad.

Las más tocadas de System of a Down

Toca una Canción al Azar de System of a Down
Db
Ab
Gb
Bb
Eb
C#
G#
F#
A#
D#
F5
A5
D5