War?
System of a Down
Acordes

Subida por Fecohernandez
Álbum: System of a Down ( 1998)


Más Versiones
Ver. 2

Cambiar Cifrado
Americano Latino

Cambiar Tonalidad
-1 +1

Partir Pantalla Imprimir FAQ

+A
-A


Ver solo la LETRA
(intro)

D|-----------------|------------------|
A|---------x-x-x-x-|----------8---8---|
F|-8-7-8-7-x-x-x-x-|-8-7-8-7----7---7-|
C|---------x-x-x-x-|------------------|
G|-----------------|------------------|
C|---------------x3|----------------x1|

D|-------------------------------|
A|---------x-x-x-x-x-x-x-x-x-x-x-|
F|-8-7-8-7-x-x-x-x-x-x-x-x-x-x-x-|
C|---------x-x-x-x-x-x-x-x-x-x-x-|
G|-------------------------------|
C|-----------------------------3x|

(Abafe todas as cordas para fazer a parte do x)

D|------------------------------------------------------|
A|------------------------------------------------------|
F|---------------------------1010------------1111-------|
C|----------------------------x-x------------x-x--------|
G|-0-6-0-0-6-0-0-8-0-0-6-0-0--8-9-0-0-6-0-0--9-90-0-6-0-|
C|-0-6-0-0-6-0-0-8-0-0-6-0-0------0-0-6-0-0-----0-0-6-0-|

D|--------------------------------------------|
A|--------------------------------------------|
F|--------------------------------------------|
C|--------------------------------------------|
G|-1-0-1-0--1-0-1-0--1-0-1-0--1-0-1-0-5-0-5-0-|
C|-1-0-1-0--1-0-1-0--1-0-1-0--1-0-1-0-5-0-5-0-|

D|-------------------------------------------------------------------|
A|-------------------------------------------------------------------|
F|-------------------------------------------------------------------|
C|-------------------------------------------------------------------|
G|-------------------------------------------------------------------|
C|-1-0-1-0-x-x-x-x-1-0-1-0-x-x-x-x-1-0-1-0-x-x-x-x-1-0-1-0-5-0-5-0-2x|

D|----------------------------------------------------------------|
A|----------------------------------------------------------------|
F|----------------------------------10-------------11-11----------|
C|-----------------------------------x--------------x--x----------|
G|-0-0-6-6-0-0-6-0-0-8-8-0-0-6-0-0---8---0-0-6-0-0--9--9--0-0-6-0-|
C|-0-0-6-6-0-0-6-0-0-8-8-0-0-6-0-0-------0-0-6-0-0--------0-0-6-0-|

D|-------------------------------------|
A|-------------------------------------|
F|-----------12-11-10-9----------------|
C|9-10-11-12-----------8x-12-11-10-9---|
G|-------------------------------------|
C|-------------------------------------|
(depois de 8x e so 12-11-10-9 ate o fim)

Dark is the light,
The man you fight,
With all your prayers, incantations,
Running away, a trivial day,
Of judgment and deliverance,
To whom was sold, this bounty soul,
A gentile or a priest ?
Who victored over, the seljuks,
When the holy land was taken

We will fight the heathens, we will fight the heathens
We will fight the heathens, we will fight the heathens

Was it the riches, of the land,
Powers of bright darkness,
That lead the noble, to the east,
To fight the heathens

We will fight the heathens, we will fight the heathens
We will fight the heathens, we will fight the heathens
We will fight the heathens, we will fight the heathens
We will fight the heathens, we will fight the heathens

We must call upon our bright darkness,
Beliefs, they're the bullets of the wicked,
One was written on the sword,
For you must enter a room to destroy it,
International security,
Call of the righteous man,
Needs a reason to kill man,
History teaches us so,
The reason he must attain,
Must be approved by his god,
His child, partisan brother of war,

Of war, we don't speak anymore,
Of war, we don't speak anymore,
Of war, we don't speak anymore,
Of war, we don't speak anymore,

We will fight the heathens, we will fight the heathens
We will fight the heathens, we will fight the heathens
We will fight the heathens, we will fight the heathens
We will fight the heathens, we will fight the heathens

ACORDES PARA GUITARRA

PIANO UKELELE


COMENTARIOS

Aún no hay comentarios,

¡escribe el primero!

Escribe una pregunta, duda o comentario sobre esta canción, te responderemos a la brevedad.

Las más tocadas de System of a Down

Toca una Canción al Azar de System of a Down