El diluvio y la pasajera
Invisible
Acordes

Subida por Jheyner
Álbum: Invisible ( 1974)


Más Versiones
Ver. 2 Ver. 3 Ver. 4 Ver. 5

Cambiar Cifrado
Americano Latino

Cambiar Tonalidad
-1 +1

Partir Pantalla Imprimir FAQ

+A
-A
Temazoo..
Lo que si, hay que tocarlo con apregios bastante
descoordinados y tambien hay una eléctrica de fondo..



Amaj7* Dmaj7* (/A)
Todo el mundo contento está

Amaj7* Dmaj7*
los recuerdos cesaron al fin.

Amaj7** Amaj7*** C#m A C#m
Ya se ven los recreos entre el sol

D Dmaj7**
esperan

E5 G5
a que el viento sople fuerte

C5 B5 F#m*
con su boca marfil
C5 B5 C5 B5 C5 B5 C5 B5 C5 B5 C5 D5
y el diluvio caiga contemplándote - ee


e---------------------------------------------------/
b---------------------------------------------------/
g---------------------------------------------------/
d---------------------------------------------------/
a---0--0h2p0-0---0h2p0-0----0h2p0---0h2p0---0h2p0---/
E---5--------5-5-------5-5--------5-------5-------5-/

e---------------------------------------------------/
b---------------------------------------------------/
g---------------------------------------------------/
d---------------------------------------------------/
a---0--0h2p0-0---0h2p0-0----0h2p0---0h2p0---0h2p0---/
E---5--------5-5-------5-5--------5-------5-------5-/


Amaj7* Dmaj7* (/A)
Con el río la luna oye,

Amaj7* Dmaj7*
los claroscuros esconden perlas y es así

Amaj7** Amaj7*** C#m A C#m
que desde el cuerpo del volcán
D Dmaj7**
ya muerto,

E5 G5 C5 B5 F#m*
los indígenas preparan otro rayo láser

C5 B5 C5 B5 C5 B5 C5 B5 C5 B5 C5 D5
para que el diluvio ya jamás los seque - ee


e---------------------------------------------------/
b---------------------------------------------------/
g---------------------------------------------------/
d---------------------------------------------------/
a---0--0h2p0-0---0h2p0-0----0h2p0---0h2p0---0h2p0---/
E---5--------5-5-------5-5--------5-------5-------5-/

e---------------------------------------------------/
b---------------------------------------------------/
g---------------------------------------------------/
d---------------------------------------------------/
a---0--0h2p0-0---0h2p0-0----0h2p0---0h2p0---0h2p0---/
E---5--------5-5-------5-5--------5-------5-------5-/


A-5------------------5-4-----/
Y en qué ternura están

A----------------------------7-4-7-4-7-4-7-4-4-4s2p0-2-0-/
aquellos ignorados que se duermen

A-5------------------5-4-----/
Y tanto como para no ver

A----------------------------7-4-7-4-7-4-7-4-4-4s2p0-2-0-/
al menos sin ser vista: una reina


A-----4-4-5-5-4-4/2--/
Pero ahora bien:
(Todo en base de A)
Puede usted mil veces golpear en sueños
que puertas del diluvio mo, no hay

e---------------------------------------------------/
b---------------------------------------------------/
g---------------------------------------------------/
d---------------------------------------------------/
a---0--0h2p0-0---0h2p0-0----0h2p0---0h2p0---0h2p0---/
E---5--------5-5-------5-5--------5-------5-------5-/

e---------------------------------------------------/
b---------------------------------------------------/
g---------------------------------------------------/
d---------------------------------------------------/
a---0--0h2p0-0---0h2p0-0----0h2p0---0h2p0---0h2p0---/
E---5--------5-5-------5-5--------5-------5-------5-/


A* / B/A*


Arreglos:

e------9p7---9p7--9p7---9p7--------/
b----7----7------7----7-----7------/
g---8------------------------------/
d--9-------------------------------/
a----------------------------------/
E----------------------------------/

e-7-9-10-9-7-

e-12/12-12/12-12/12-12/12-12/12-12/12-12/12-.. fade out

e-16/16-16/16-16/16-16/16-16/16-16/16-16/16.. fade out

e-19/19-19/19-19/19-19/19-19/19-19/19-19/19.. fade out

(eléctrica)
e---------12-12--------10-9-----------12´-12´-12´-12´-(14)
b-9h11p12-------9-10-9------10-9-10-9-------------






Acordes

E A D G B E

A 5 7 7 6 5 5
A* x 0 7 6 5 5
Amaj7* x 0 7 6 5 4
Amaj7** x 0 6 6 5 0
Amaj7*** x 0 7 6 5 0

B/A* x 0 9 8 7 7
B5 x 2 4 4 x x

C5 x 3 5 5 x x
C#m x 4 6 6 5 4

D x 5 6 6 6 5
D5 x 5 6 6 x x
Dmaj7* (/A) x 12 11 10 9 8

E5 0 2 2 x x x

F#m* x 4 4 2 0 0

////////////////// ¿Te Animas? Sube una canción a este sitio. //////////////////

ACORDES PARA GUITARRA

PIANO UKELELE
Amaj7
Dmaj7
A
C#m
D
E5
G5
C5
B5
F#m
D5
A
E
G
B


COMENTARIOS

Aún no hay comentarios,

¡escribe el primero!

Escribe una pregunta, duda o comentario sobre esta canción, te responderemos a la brevedad.

Las más tocadas de Invisible

Toca una Canción al Azar de Invisible
Amaj7
Dmaj7
A
C#m
D
E5
G5
C5
B5
F#m
D5
A
E
G
B