La azafata del tren fantasma (Acordes)

Invisible

Subida por CCHAMO

Compartir


Cambiar Cifrado
Americano Latino

Cambiar Tonalidad
-1 +1
Imprimir FAQ
+A
-A

Texto

Desplazamiento

Transportador

Color de Fondo

Archivos

-A
+A
G|-----------------------------------------------------------------|
D|-------7-9-10-9-7--7--------------------5-7-8-7-5---5------------|
A|-7-9-10----------10-10-9-7-8-7-7---5-7-8---------8p7-8-7-5-6-5-5-|
E|-----------------------------------------------------------------|

G|-----------------------------------------------------------------|
D|-------7-9-10-9-7--7--------------------5-7-8-7-5---5------------|
A|-7-9-10----------10-10-9-7-8-7-7---5-7-8---------8p7-8-7-5-6-5-5-|
E|-----------------------------------------------------------------|

G|-------------9------------------------------
D|------9-10-12-12-10-9-10-9------------------
A|-10-12--------------------12p11p10-12-10-10-
E|--------------------------------------------

G|-------------------------------|
D|------5-7-8-7-5---5------------|
A|-5-7-8---------8p7-8-7-5-6-5-5-|
E|-------------------------------|

G|-------------9------------------------------
D|------9-10-12-12-10-9-10-9------------------
A|-10-12--------------------12p11p10-12-10-10-
E|--------------------------------------------

G|-------------------------------|
D|------5-7-8-7-5---5------------|
A|-5-7-8---------8p7-8-7-5-6-5-5-|
E|-------------------------------|

G|-------------------------------------------------------------------|
D|-------7-9-10-9-7----7--------------------5-7-8-7-5---5------------|
A|-7-9-10----------10p9-10-9-7-8-7-7---5-7-8---------8p7-8-7-5-6-5-5-|
E|-------------------------------------------------------------------|

“El rey come su carne y bebe de mas”             “Sirven mesas en llamas y
G|---------------------------5-5-5-----5---------------------------------5
D|-----9----8----7---7------5----------------------9----8----7---7------5-
A|--7----6---6-5---4--4-3-3--------3-3---33-33--7----6---6-5---4---4-3-3--
E|---------------------------------------------7--------------------------

agria la sal”       “El señor del castillo…”              “con la escena…”
G|-5-5----5------------------------------------------------------------7-7
D|--------------5-----10----------4-5-8-------8-------8-------------------
A|----3-3---33-3-3-8------8--6--6-----------8--6h8---8---------7---5--5-5-
E|--------------------------------------6-6-------6-----6-6-0-------------

bufon…       aaah!”                           “y en la escalera esta…”
G|----------------------------------------------------------5-------------
D|-------------------12-----------12-----12--7-8-----2-3-4-5-5------4---3-
A|-4---4------10--10----------10----10-10---------3-3-----------3-3-------
E|----------10----------10--10--------------------------------------------

 “Del tren fantasma…”              “y en la escalera esta…”
G|-------------------4-------4---------------------5---
D|----------------4---4---------------------2-3-4-5-5--
A|-6---4---3---2-------2---2---2|2-2|2-2|3-3-----------
E|-----------------------------------------------------

            “Del tren fantasma…”
G|-----------------------------4-4----------4-----|
D|-----4---3-----------------4-----4-------4-4-4--|
A|-3-3--------6--4--3--2--2----------2---2----2-2-|
E|------------------------------------------------|

1:48
G|-------------------------------------------------------------------|
D|-------7-9-10-9-7----7--------------------5-7-8-7-5---5------------|
A|-7-9-10----------10p9-10-9-7-8-7-7---5-7-8---------8p7-8-7-5-6-5-5-|
E|-------------------------------------------------------------------|

                                    aaah!
G|-----------------------------------------------------|
D|-------7-9-10-9-7--7------------------5--------------|
A|-7-9-10----------10-10-9-7777-7---5----8-7-5-7-6-5-5-|
E|-----------------------------------------------------|

G|-------------9----------------------------------7---7------------------|
D|------9-10-12-12-10-9-10-9---------------------7-7-7-7--5--------------|
A|-10-12--------------------12p11p10-12-10-10---5---5---5--8-7-5-7-6-5-5-|
E|-----------------------------------------------------------------------|

                                             aaah!
G|-------------9---------------------------------------------------------|
D|------9-10-12-12-10-9-10-9------------------------------5--------------|
A|-10-12--------------------12p11p10-12-10-10---------5----8-7-5-7-6-5-5-|
E|-----------------------------------------------------------------------|
2:16
G|-------------------------------------------------------------------|
D|-------7-9-10-9-7----7--------------------5-7-8-7-5---5------------|
A|-7-9-10----------10p9-10-9-7-8-7-7---5-7-8---------8p7-8-7-5-6-5-5-|
E|-------------------------------------------------------------------|

                                   aaah!
G|-----------------------------------------------------|
D|-------7-9-10-9-7--7------------------5--------------|
A|-7-9-10----------10-10-9-7777-7---5----8-7-5-7-6-5-5-|
E|-----------------------------------------------------|
2:30
G|-------------9-----------------------------------7---7------------------|
D|------9-10-12-12-10-9-10-9----------------------7-7-7-7--5--------------|
A|-10-12--------------------12p11p10-12-10-10----5---5---5--8-7-5-7-6-5-5-|
E|------------------------------------------------------------------------|

                                             aaah!
G|-------------9----------------------------------------------------------|
D|------9-10-12-12-10-9-10-9-------------------------------5--------------|
A|-10-12--------------------12p11p10-12-10-10----------5----8-7-5-7-6-5-5-|
E|------------------------------------------------------------------------|

G|-------------------------------------------------------------------|
D|-------7-9-10-9-7----7--------------------5-7-8-7-5---5------------|
A|-7-9-10----------10p9-10-9-7-8-7-7---5-7-8---------8p7-8-7-5-6-5-5-|
E|-------------------------------------------------------------------|

“El rey hurga en sus muelas ante de armar  Y sus vasallos vomitan tanta…”
G|---------------------------5-5-5-----5--------------------------------5
D|-----9----8----7---7------5---------5-5-5------9----8----7---7-------5-
A|--7----6---6-5---4--4-3-3--------3-3---3----7-----6---6-5--4---4-3--3--
E|-----------------------------------------------------------------------

                      “Hasta que lentamente uno…”            “y le clava…”
G|------------------------------------------------------------------------
D|-3h5-----5---5---5-------10----------4-5-8------8--------8--------------
A|-----3-3---3---3---3--8------8--6--6-----------8--6h8---8----------7----
E|-------------------------------------------6-6-------6-----6-6-0--------

 “…daga por la espalda”                                   “y en el jardin…”
G|------7-------------------------------------------------------------5---
D|-----------------------------12-----------12-----12--7-8-----2-3-4-5-5--
A|-5--5-----4--4--4-----10--10----------10----10-10---------3-3-----------
E|--------------------10----------10--10----------------------------------

azafata…      …del tren fantasma”            “la puedo ver reir a la…”
G|----------------------------------4------4-----------------5------------
D|-----4---3---------------------4---4----4-4---------2-3-4-5-5-----4---3-
A|-3-3---------6---4---3---2--2-------2--2---2|2-2|3-3----------3-3-------
E|------------------------------------------------------------------------

 “Del tren fantasma…”   4:15||esta parte corta se escucha poco en el disco
G|-------------------------------------------------------------------
D|------------------4--4-4------4-4------------------------9-------9-
A|-6---4---3---2--2-------2--2-2-2-2/14-14-14-14-------------99-9-9--
E|----------------------------------------------14-12-14--7----7-7---

pero esta bien transcripta, acomodenlo   ||
G|-------------------------------------8--------------------------
D|---9--9-7-7h9-7----------9--9-7-7-9s7-9-------13----------13----
A|----------------9-7-9----------9---------14-14--14---14-14--14--
E|-7---------------------7----------------------------------------

  4:23
G|------------------13--------13--------13--------------------------------
D|------13----------------------------------------------------------------
A|-14-14--14---14-14-----14-14-----14-14----14--14--14--14--14--14--14--14
E|------------------------------------------------------------------------

  5:14
   esto varias
  veces(rapido)             5:38
G|-7h9h7h9h7h9-|------------|----------5----------------5--------
D|-------------|-7/9--------|----5--7-5-7/19s2----5--7-5-77-5-7--
A|-------------|--------7---|--7----------------7----------------
E|-------------|-----0------|------------------------------------

           (4 veces)         6:07 “Con sus manos de frió el rey dormira”
G|---------------------------|--------------------------------------|
D|---------------------------|--------------------------------------|
A|-----0-3-0-------0-3-0-0-0-|--0-0----------------3-3----5-5/17s5--|
E|-0-3--3------0-3--3-----3--|--------------------------------------|

           (2 veces)         6:24 “Y la eterna azafata lo embalsamara”
G|---------------------------|--------------------------------------|
D|---------------------------|--------------------------------------|
A|-----0-3-0-------0-3-0-0-0-|--0-0--------------3-3------5-5/17s5--|
E|-0-3--3------0-3--3-----3--|--------------------------------------|

           (4 veces)                   (8 veces)
G|---------------------------|----------5------------------|
D|---------------------------|----5--7-5-7-----------------|
A|-----0-3-0-------0-3-0-0-0-|--7----------------0-3-0-0-0-|
E|-0-3--3------0-3--3-----3--|---------------0-3--3-----3--|

 7:35
G|-----------------------------------------10----------------10-----------
D|--------3-----------3------------10-12-10--12------10-12-10--12|12-10-12
A|-0-3-5-3-5---0-3-5-3-55-3-5---12----------------12----------------------
E|------------------------------------------------------------------------

           (2 veces)
G|---------------------------|
D|---------------------------|
A|-----0-3-0-------0-3-0-0-0-|
E|-0-3--3------0-3--3-----3--|

      “No habra flores ni vientos que lo hagan gritar”
G|-----------------------------------------------------|
D|-----------------------------------------------------|
A|--3-3-------------------5-5------------3-3---0-----0-|
E|-----------------------------------------------------|

p: pull off
h: hammer on
s: slide off
/: slide up
| (por ej 12|12): tocar ambos trastes rapido

Azafata del Tren Fantasma (Invisible)

El rey come su carne
Bebe de más
Sirven mesas en llamas
y agria la sal
El señor del castillo
da la reunión
con la escena muriente
de un bufón
Y en la escalera está
la azafata del tren fantasma

El rey hurga en sus muelas
antes de armar
y sus vasallos vomitan
tanta traición
hasta que lentamente
uno de ellos se acerca
y le clava una daga por la espalda
Y en el jardín está
la azafata del tren fantasma
la puedo ver reir
a la azafata del tren fantasma

Con sus manos de frío el rey dormirá
y la eterna azafata lo embalsamara
no habrá flores ni vientos
que lo hagan gritar

Mientras su musica se siga tocando y escuchando el carpo jamas
morira, vivira eternamente en la memoria de todos...
Aquellos bajistas que le guste la musica de Pappo y del Flaco
Spinetta (de los 70´) me pueden escribir al e-mail:
[email protected]


Video Clip de La azafata del tren fantasma


ACORDES PARA GUITARRA

PIANO UKELELE


TOP 20: Las más tocadas de Invisible


Toca una Canción al Azar de Invisible

Acordes

Cerrar

23.51

x

75