Perdonado (niño condenado)
Invisible
Acordes

Subida por Adriana


Más Versiones
Ver. 2 Ver. 3 Ver. 4 Ver. 5

Cambiar Cifrado
Americano Latino

Cambiar Tonalidad
-1 +1

Partir Pantalla Imprimir FAQ

+A
-A
Consideraciones Preliminares: Gente, les aviso que este tema
se saco por puro oido,asi que digamos que básicamente es asi
por lo tanto les recomiendo que ustedes lo trabajen un poco
entonces practican y le ponen mas onda. Yo se que debe haber
errores pero es probable que ustedes lo puedan mejorara por
su cuenta. Manejense...


Intro

A G F#

|-------------0-------------3--------------------------
|-----2s3-2s3--------------------------2---------------
|-------------------4h5-4h5----3h4-3h4---3-------------
|------------------------------------------------------
|--0---------------------------------------------------
|---------------3--------------2-----------------------



Frase 1
|----------------------|
|----------------------|
|----------------------|
|--2h4-2-0-------------|
|----------4-2-1-0-----|
|----------------------|


D C

|------------------------------------------------------------|
|------3--2----2---2-----2-------------1-0------0------------|
|----2----2------2---2-----2---------------0------0----------|
|--0------0----0-------0-----0------2---------2------2-------|
|---------------------------------3--------------------------|
|------------------------------------------------------------|

Bm intro

|-2--2--2---------|
|-3--5--3---------|
|-4--2--2---------|
|-4--4--4---------|
|-2--2--2---------|
|-----------------|


Riff 1

|-----------12-----------|
|-------10-----12--------|
|----11------------------|
|-12---------------------|
|------------------------|
|------------------------|

Riff 2

|-2----------2---------------------|
|-3----------3--------0-1----------|
|-4--------2-4----------0----------|
|-4--2-4-5---4--2-4-5---2----------|
|-2----------2----------3----------|
|-2----------2---------------------|



Riff 3

|--2----------2-----------2-------|
|--3----------3-----------3-------|
|--4----------4-----------4-------|
|--4----------4-----------4-------|
|--2--------0-2---------0-2-------|
|-----0-2-3-------0-2-3-----------|

Riff 4 C

|-2---------------------------------|
|-3----------------------------1----|
|-4----------------------------0----|
|-4----------------------------2----|
|-2-------0-2-3-4-5--------0-2-3----|
|---0-2-3------------2-3-4----------|



G C Bm C
Habla conmigo, viejo perro blanco

G C Bm C
Habla conmigo, ladra tu quebranto

Riff 2
Cuando quieras
C
Olvidarlo
C
Tu quebranto


Habla conmigo, perro de la lluvia
Habla conmigo, solo tu conoces
LA vendimia
De la Calle

Riff 3 C - B - (D - C)x 3 Bm
La delicia...

(Intro - Frase 1)x 2 - D - C - Bm intro


Habla conmigo, viejo perro blanco
Busca descanso, con tu molinete
Que los amos
No descasan
Ya no existen

Habla conmigo, perro de la lluvia
Habla conmigo, niño condenado
Por el diablo
De Febrero
Perdonado

Riff 3 C
Perdonado

Luego: Riff 4 - C

Final: Riff 4 - C - D - C - D - Bm




En fin, disfutenlo. WWW.ELROCKENMISVENAS.BLOGSPOT.COM

Si quieren aportar algo : [email protected]

////////////////// ¿Te Animas? Sube una canción a este sitio. //////////////////

ACORDES PARA GUITARRA

PIANO UKELELE
A
G
F#
D
C
Bm
A
B


COMENTARIOS

Aún no hay comentarios,

¡escribe el primero!

Escribe una pregunta, duda o comentario sobre esta canción, te responderemos a la brevedad.

Las más tocadas de Invisible

Toca una Canción al Azar de Invisible
A
G
F#
D
C
Bm
A
B