El tema de Elmo Lesto (Acordes)

Invisible

Subida por angelRicardo

Compartir


Cambiar Cifrado
Americano Latino

Cambiar Tonalidad
-1 +1
Imprimir FAQ
+A
-A

Texto

Desplazamiento

Transportador

Color de Fondo

Archivos

-A
+A
Este tema es cortito y es muy sencillo tocarlo.

Consiste en estos riffs: 


Riff 1

G-9-7------------------------
D-----9-8-7------------------
A-----------10-7-------------
E----------------------------

Riff 1 grave

G----------------------------
D----------------------------
A-7-5------------------------
E-----7-6-5-3-0--------------

Riff 2

G-----------0-----------------
D---------0---2---------------
A-----0-2---------------------
E-0-3-------------------------


Video Clip de El tema de Elmo Lesto


ACORDES PARA GUITARRA

PIANO UKELELE


TOP 20: Las más tocadas de Invisible


Toca una Canción al Azar de Invisible

Acordes

Cerrar

04.04

x

53