Irregular
Invisible
Acordes

Subida por Blanca
Álbum: Invisible ( 1974)


Más Versiones
Ver. 2 Ver. 3 Ver. 4 Ver. 5

Cambiar Cifrado
Americano Latino

Cambiar Tonalidad
-1 +1

Partir Pantalla Imprimir FAQ

+A
-A
Como es una tablatura van a tener que escuchar atentamente para 

relacionar los tiempos con lo que está escrito. Ya que la
mayoria del tema es instrumental les puse el tiempo para que se
ubiquen. Esta canción está muy buena, ojala la disfruten.

G-------14------------------14---------
D----14----14------------14----14------
A-12----------12-15---12----------12---
E------------------------------------8-

G-------9-10-12-10p9-9-------9-10-12-10p9-99-
D----12-------------------12-----------------
A-10-------------------10--------------------
E--------------------------------------------

G---9-7-----------------------------
D-------9-8-7-5---------------222---
A---------------7-5---------------3-
E-0-----------------7-6-5-3-0-------

G-------99-7------------------------------
D-----9------9-8-7-5---------------6789---
A---7----------------7-5---5-5-6-7--------
E-0----------------------7--------------9-

G-------7-----------------------------------------------------4-------------------------
D-----7---7-------4---------6-------7---------4-----------4-6---6-4-----7-----------4---
A---5-------0-2-2---2-0-4-4---4-0-5---5-4-2-2---2-0-4-4-6-----------5-5---5-4-2-222---4-
E-0-------------------------------------------------------------------------------------

Tiempo (1:03)
G-------14------------------14---------
D----14----14------------14----14------
A-12----------12-15---12----------12---
E------------------------------------8-

G-------9-10-12-10p9-9-------9-10-12-10p9-99-
D----12-------------------12-----------------
A-10-------------------10--------------------
E--------------------------------------------

G-------9-------9---7-------------9-------
D-----9---9---9---9---9-7-9-----9---9-----
A---7-------7-----------------7-------7---
E-0-------------------------0-----------8-

G-------9---7---------------------
D-----9---9---9-8-7-5-------------
A---7-----------------7-5-------4-
E-0-----------------------7-6-5---

G-------7-------------------------4-----------------------------------4---------777-5-------------------
D-----7---7-------4-----------4-6---6-------7---------4-----------4-6---6-4-----------7-6-5-------------
A---5-------0-2-2---2-0-4-4-6---------0-5-5---5-4-2-2---2-0-4-4-6-----------0-5-------------7-------9---
E-0-------------------------------------------------------------------------------------------7-777---9-

Tiempo (2:07)
G---------------1-2-4-------------1-2-4---------------1-2-4---------------1-2-4-
D---------1-2-4-------------1-2-4---------------1-2-4-------------1-2-3-4-------
A-----2-4---------------2-4-----------------2-4---------------2-4---------------
E-0-0-----------------0-----------------0-0-----------------0-------------------

G---------------------------------------4---4-5-6-6-6-4-6-8-6-8-6-8-9-9-8-6-9-8-6-4---
D-----6-----------------------------4-6---6-----------------------------------------6-
A-4-4---0-4-7p6---4-------4-4-7-4-7---------------------------------------------------
E---------------7---2-3-4-------------------------------------------------------------

G--------------------------------------------------
D-----6----6---7----7----------6-5-4-2-------------
A--------------------------4-4---------4-2-4-------
E-0-4---44---5---55---55-0-------------------0-2-3-

G-----------------------------------------------------
D----6-6-------7----7---7-------6-5-4-2---------------
A---------------------------4-4---------4-2-4---------
E--4-----4---5---55---5---5-------------------0-1-2-3-

Nota: la ultima parte de esta vuelta también se puede hacer con media cejilla
en (11), como les sea más comodo.

Tiempo (2:55)
G----------------------------6---6-------------9----11-------13-11-9------
D----6---6-------7---------6---6--6h11-11-9-11---11----11-11---------11s6-
A--------------7---7---7-4------------------------------------------------
E--4---4---4-5-------5----------------------------------------------------

G---------------------------------------------------------
D----6---6---6---7----7---7-------6-5-4-2-------------2---
A-----------------------------4-4---------4-2-1-2-3-4---4-
E--4---4---4---5---55---5---5-----------------------------

G---------------------------------6---4-----6-4---------------
D----6---6-------7---7----7-----6---6---6-4-----6-4---------4-
A-----------------------------4---------------------7-6-4-6---
E--4---4---4-0-5---5---55---5---------------------------------

Tiempo (3:20)
G-----------------------------------------------------
D-6-6-6-5-6-7-6-5-4---------6-------------------------
A-------------------7-6-4-4---4---4-7p6---4-------2---
E-------------------------------7-------7---0-2-3---0-

G--------------------------------------------------
D----6---6---------7--------------6(66)-5-4-2------
A----------------7-----7-7-0-4-44-------------4----
E--4---4---4-0-5-----5--------------------------0--

G-------------------------------------------------------
D----6---6-------7---7----7--------6(66)-5-4------------
A-----------------------------4-44-----------4-2--------
E--4---4---4-0-5---5---55---5--------------------0-2-3--

G-------------------------------
D------6-------7----7---7-------
A---------------------------4---
E-4-44---4-0-5---55---5---5-----

G-----------------
D-----------------
A--------7--------
E-----------------

´Mientras la ciudad calla...´

G-----------------
D-----------------
A--------6--------
E-----------------

´...siguen´

G-----------------
D-----------------
A--------5--------
E-----------------

G-----------------------------
D-----------2-----------------
A-----2-3-5---3-2-0-------7---
E-3-5---------------1--0------

´Aún en el corazón...´

G-----------------
D-----------------
A--------6--------
E-----------------

G-----------------
D-----------------
A--------5--------
E-----------------

G---------------------------------
D-----------2------------------14-
A-----2-3-5---3-2-0---------14----
E-3-5---------------1--0-12-------

´Se escucha el...´

G---------------------------------
D-----13-11-----------------------
A-----------13-11h13--------------
E--11----------------11s5---------

´..de inocencia´

G-----------------
D-----------------
A--------5--------
E-----------------

G---------------------------------
D-----------2---------------14----
A-----2-3-5---3-2-0---------------
E-3-5---------------1--0-12-------

´Pues no hay nada ni nadie...´

G----------------------------
D-------13-------------------
A----13----13----------------
E-11----------11s5-----------

´...que comprenda´

G-----------------
D-----------------
A--------5--------
E-----------------

G------------------------------
D-----------2----------(3)-----
A-----2-3-5---3-2-0------------
E-3-5---------------1----------

G---------------------------------7--
D---5-------2------------------------
A-------3h5-----------3---3---3-5----
E-5---0-------3h5-3h5---5---5--------

´...entre los telones de esta far...´

G---5-------------------------
D-3----5h7--------------------
A-----------------------------
E----------5------------------

´...sa´

G---------------------
D--------7------------
A---------------------
E---------------------

G------------------------------7--
D--------2------------------------
A----3h5-----------3---3---3-5----
E--0-------3h5-3h5---5---5--------

´...ansioso el misterio eter...´

G---5-------------------------
D-3----5h7--------------------
A-----------------------------
E----------5------------------

´...no´

G---------------------
D--------7------------
A---------------------
E---------------------

G--------------------------------
D--------2-----------------------
A----3h5-----------3---3---3-5---
E--0-------3h5-3h5---5---5-------

´De aquellas mismas venas sangraba...´

G-7-77-7777777777------------
D----------------------------
A----------------------------
E----------------------------

...dios´

G----------------------------
D---8-8-8---8-8-8------------
A----------------------------
E-6-------6-------6----------

´dios y su...´

G----------------------------------
D---5-------2----------------------
A-------3h5-----------3---3---3----
E-5---0-------3h5-3h5---5---5------

´Su cabeza cayó...´

G----------------------------
D-4-5-4-5-4-6----------------
A----------------------------
E----------------------------

...de rodillas´

G-----------------------
D---3-----3-3-----------
A-----3-----------------
E-1-----1---------------

´Y su vientre rodó...´

G----------------------------
D-4-5-4-5-4-2----------------
A----------------------------
E----------------------------

´...por entre el tráfico...´

G------------5---------------
D--------3-------------------
A----------------------------
E----------------------------

´...regular...´

G--------4-5-6-7--------------
D--3-4-5---------5------------
A------------------5----------
E--------------------3--------

G-------------------------------
D--------2----------------------
A----3h5-----------3---3---3----
E--0-------3h5-3h5---5---5------

Tiempo (6:08)
G-------14------------------14---------
D----14----14------------14----14------
A-12----------12-15---12----------12---
E------------------------------------8-

G-------9-10-12-10p9-------
D----12--------------------
A-10-----------------------
E---------------------0-77-

G-------9-10-12-10p9-------
D----12--------------------
A-10-----------------------
E---------------------0-77-

G-------9-10-12-10p9-------
D----12--------------------
A-10-----------------------
E---------------------0-77-

Tiempo (6:42)
G----------9-10-12-10p9---------9-----9------11------11-11----12-14-12------
D----12s17------------------------9-------------11---------------------15s5-
A-10--------------------------7-----7---77-9-------9-------10---------------
E-----------------------0-7-0-----------------------------------------------

Nota: Pongo 11|11 para que sepan que es 11 seguido no 1...lo mismo con 10|10.

G-----9-------11-11|11|11|11----12--------14---
D----------------------------------------------
A-7-7---7-0-9----------------10----10|10-------
E--------------------------------------------9-

Tiempo (7:09)
G---7---------------------4---------7---------4---------------4-------------------
D---------4-----------4-6---6-4---------------------------4-6---6-4---7-----------
A-5---0-2---2-0-4-4-6-----------5-5---5-4-2-2---2-0-4-4-6-----------5---5-4-2-----
E---------------------------------------------------------------------------------

Final

G------6----------
D------6----------
A------4----------
E-----------------

Hasta la proxima!!
Aguante PrincipioFinal!!


ACORDES PARA GUITARRA

PIANO UKELELE


COMENTARIOS

Aún no hay comentarios,

¡escribe el primero!

Escribe una pregunta, duda o comentario sobre esta canción, te responderemos a la brevedad.

Las más tocadas de Invisible

Toca una Canción al Azar de Invisible