Lo que nos ocupa es esa abuela la conciencia
Invisible
Acordes

Subida por PaoEC1994


Más Versiones
Ver. 2 Ver. 3 Ver. 4 Ver. 5 Ver. 6

Cambiar Cifrado
Americano Latino

Cambiar Tonalidad
-1 +1

Partir Pantalla Imprimir FAQ

+A
-A
Intro
|----------------------------------|
|----------------------------------|
|---------------9/-9-7----7--------|x4
|-9-9-9--7---9----------9----9-----|
|-7-7-7--5---7---------------------|
|----------------------------------|
Riff 1
|-------------------------------------------|
|-------------------------------------------|
|-------------------------------------------|
|----------2--0-----------------------------|
|----------------3--0-----------------------|
|-0--0--0--------------3--0-----------------|


B C A Riff 1 x2
Dime nena ya, cómo estás despierta
Dime nena ya, cómo estás despierta
B C D G
Dime nena ya, cómo estás despierta

C B C Pattern x4 + Riff 1 x4

Pattern
|--------------------------------------------------|
|-------8------------------------------------------|
|-7--9----9--7-9--7----7---------------7------9--7-|
|--------------------9---7-----7----9------9-------|
|---------------------------9----------------------|x4
|--------------------------------------------------|

|----------------------------|
|----------------------------|
|----------------------------|
|-----9--7---- Riff 1 x4-----|
|-----7--5-------------------|
|----------------------------|

B C A Riff 1 x4
Cuando triste estoy, nena, me das cola
cuando triste estoy, nena, me das cola
B C
y si quiero más
D G C B C Pattern x4
¿por qué estás tan sola?

E Binv9
Hay un camino que nace de tu imagen,
Ainv9 Binv9
al que es muy fácil llegar

solo es preciso ver el brillo de unos ojos,
para encontrar un alma...

C D G Riff 1
Lo que no resisto, es la conciencia
es la abuela que regula el mundo...
B C D G C B C
dime nena ya, ¿es este otro mundo?

Es este un sueño que pasa por nosotros,
es la vereda de los descalzos...
¡espera!¡espera!,yo solo siempre
te espero anidado en una mano...

lo que nos ocupa, es esta abuela,
la conciencia que regula el mundo...
Dime nena ya, como estás despierta...
Pero nena igual,

no elijas llorar...

Gracias por ahorrarme trabajao en sacar las canciones,
por eso me veo en la obligación de retribuir en algo
tanta ayuda.
Les paso este temazo de Invisible, lo estoy pasando sin
la guitarra, espero que esté bien
Saludos para los fan del flaco y dela música en general

////////////////// ¿Te Animas? Sube una canción a este sitio. //////////////////

ACORDES PARA GUITARRA

PIANO UKELELE
B
C
A
D
G
E


COMENTARIOS

Aún no hay comentarios,

¡escribe el primero!

Escribe una pregunta, duda o comentario sobre esta canción, te responderemos a la brevedad.

Las más tocadas de Invisible

Toca una Canción al Azar de Invisible
B
C
A
D
G
E