Suspensión
Invisible
Acordes

Subida por frankcruzado
Álbum: Invisible ( 1974)


Más Versiones
Ver. 2 Ver. 3 Ver. 4

Cambiar Cifrado
Americano Latino

Cambiar Tonalidad
-1 +1

Partir Pantalla Imprimir FAQ

+A
-A
            INTRO
E--------------------------------------I
B--------------------------------------I
G--------------------------------------I
D--5--2---5--2---9--7--5--7--5--7-8--9-I X3
A--5--2---5--2---9--7--5--7--5--7-8--9-I
E--3--0---3--0---7--5--3--5--3--5-6--7-I
G E G E B A G A G A Bb B
E-----------------------------------------I
B-----------------------------------------I
G-----------------------------------------I
D--5--2---5--2---9--7--5--7--5--7-8--9--2-I
A--5--2---5--2---9--7--5--7--5--7-8--9--2-I
E--3--0---3--0---7--5--3--5--3--5-6--7--0-I
G E G E B A G A G A Bb B E

C F
Nunca estuve aquí querida
C# F#
nunca estuve aquí, ni nunca
D G
estaré, no me canso no querida
D# G#
nunca tuve sueño
E
nunca estaré
A
ah qué duende no es tu puerta ?
F A# F#
nunva estuve aquí lo siento por mí
B
halo de la hierba verde
G C D
dale que tu canto pasa por mí por mí.

INTRO

C F
Cuiden de la nube viento
C# F# D
la querida sol querida saldrá
G
nunca me abandones nena
D# G# E
sola sin el sol ceguera tendrás
A
cuiden a su cuerpo blanco
F A# F#
trepa por su cama en la oscuridad
B
nunca estuve allí querida
G C
trepo por los sueños,
D
que están de más de más de más

INTRO

RIFF (1 O 2)
Antes del tiempo
era todo azul
G A E
y leve de suspensión
RIFF (1 O 2)
al no haber gente
no había Bien ni Mal
G A E
no existía esperar
D
antes del fruto
RIFF 1
la noticia corrió
D
luego del día,
RIFF 1
el dragón vomitó el fuego

RIFF 3
RIFF 1
G F
E-ra
G F
A-ño
G F
D-ía
E
mes
F F# G
mi-nu-to

G F
E-ra
G F
A-ño
G F
D-ía
E
mes
F F# G
mi-nu-to

RIFF (1 O 2)
Antes del cuerpo
un narcótico explotó,
G A E
con los Dioses
RIFF (1 O 2)
y con los hombres
el demonio entró
G A E
escapando de Dios
D
presa del miedo
RIFF 1
el reloj se apuró
D
hojas del árbol,
RIFF 1
cayendo en suspensión

RIFF 3

INTRO

---------------------------------------------------------------

RIFF 1
E------------
B------------
G------------
D------------
A---2-----2--
E---0--3--0--

RIFF 2
E---------------------
B---------------------
G---0--2---4---2---0--
an-tes del tie-mpo
E---------------------
B---------------------
G---0--2---4---2---0--
E-ra to--DO azul
E---------------------------
B---------------------------
G---0--2---4---2---0--------
D ---------------------2----
A---------------------------
E----------------------0----
le-ve de sus--pen-sión

RIFF 3
E-----------3---I I-5e--3---3----
B-----3-3-5---5-I X3 I-------5----5-
G-2-4-----------I I--------------
D --------------I I--------------
A---------------I I--------------
E---------------I I--------------

recomiendo para tocar la estrofa ir subiendo
por el diapason a medida que se presentan los acordes
seria esto:
E A D G B E
C x 3 5 5 5 3
F 1 3 3 2 1 1
C# x 4 6 6 6 4
F# 2 4 4 3 2 2
D x 5 7 7 7 5
G 3 5 5 4 3 3
D# x 6 8 8 8 6
G# 4 6 6 5 4 4
E x 7 9 9 9 7
A 5 7 7 6 5 5
F x 8101010 8
A# 6 8 8 7 6 6
F# x 9111111 9
B 7 9 9 8 7 7
G x1012121210
C 81010 9 8 8
D x 5 7 7 x x seria D5

Espero que les sirva y perdon por
haberla mandado asi nomas antes.
cualquier cosita envien un meil. Maxi


ACORDES PARA GUITARRA

PIANO UKELELE
B
D
E
G
A
Bb
C
F
C#
F#
D#
G#
A#
C


COMENTARIOS

Aún no hay comentarios,

¡escribe el primero!

Escribe una pregunta, duda o comentario sobre esta canción, te responderemos a la brevedad.

Las más tocadas de Invisible

Toca una Canción al Azar de Invisible
B
D
E
G
A
Bb
C
F
C#
F#
D#
G#
A#
C