En una lejana playa del animus
Invisible
Acordes

Subida por Carlos23
Álbum: Durazno sangrando ( 1975)


Más Versiones
Ver. 2 Ver. 3

Cambiar Cifrado
Americano Latino

Cambiar Tonalidad
-1 +1

Partir Pantalla Imprimir FAQ

+A
-A
Este tema está afinado en 35, no en 40 como es usual…

Efectos:
Delay
Flanger
Reverb


e----------------------------------/
b--9~-7---7~-------9~-7---7~~------/
g------7---------x------7----------/
d---------------x------------------/
a----------------------------------/
E----------------------------------/

e----------------------------------/
b--9~-7---9~-7------9~-7---7~~-----/
g------7-------7---------7---------/
d----------------------------------/
a----------------------------------/
E----------------------------------/

e----------------------------------/
b--9~-7---7~-------9~-7---7~~------/
g------7----------------7----------/
d----------------------------------/
a----------------------------------/
E----------------------------------/

e----------------------------------/
b--9~-7---99~-7------9~-7---7~~----/
g------7-------7---------7---------/
d----------------------------------/
a----------------------------------/
E----------------------------------/

e----------------------------------/
b--9~-7---7-7777---9~-7---7-7777---/
g------7----------------7----------/
d----------------------------------/
a----------------------------------/
E----------------------------------/

e----------------------------------/
b--9~-7---9~-7------9~-7---7~~-----/
g------7-------7---------7---------/
d----------------------------------/
a----------------------------------/
E----------------------------------/





(0:31)
e---------7~~----------9~~----------------------/
b--9~-7---------9~-7--------9~-7---9~-7---9~-7--/
g------7-------------7----------7-------7-------/
d-----------------------------------------------/
a-----------------------------------------------/
E-----------------------------------------------/


e---------------/
b---------------/
g----2-2-3/...--/
d---------------/
a---------------/
E---------------/

e--------7------------------7--------------/
b------7—-10p7--7----------7--10p7---------/
g---9´--------9--7-----9´----------9p7-9´--/
d-----------------9------------------------/
a------------------------------------------/
E------------------------------------------/

e-------7--------------7--------------------------/
b------7—10p7---------7—9p7-----------------------/
g---9´-------9p7---9´-------9p7----´9-7-------7~--/
d------------------------------------9-9-7999-----/
a-------------------------------------------------/
E-------------------------------------------------/

e--------7------------------7--------------/
b------7—-10p7--7----------7--10p7---------/
g---9´--------9--7-----9´----------9p7-9´--/
d-----------------9------------------------/
a------------------------------------------/
E------------------------------------------/

(1:01)
e-------7--------------7--------10-10-9-7-7----7----------/
b------7—10p7---------7—9p7-----------------10----9-9~-7~-/
g---9´-------9p7---9´-------9p7---------------------7-----/
d---------------------------------------------------------/
a---------------------------------------------------------/
E---------------------------------------------------------/

e----------------------------------------/
b-9-9~--7~---9~-7---9~-7---9~-7--7~------/
g---7--7---------7------7------7---------/
d----------------------------------------/
a----------------------------------------/
E----------------------------------------/


e---9-7----------9-7----------------------------/
b--x----9s10s9—x-----10-9~--9~-7---9~-7---9~-7--/
g--x------------x---------------7------7--------/
d-----------------------------------------------/
a-----------------------------------------------/
E-----------------------------------------------/

(1:22)
e---------------/
b---------------/
g----2-2-3/...--/
d---------------/
a---------------/
E---------------/

|Redoble|


e------------------/
b----(7)---6s5-----/
g---x(7)---6s5-----/
d---x(6)---5s4-----/
a---x(x)-----------/
E---x(7)---6s5-----/


e----8---8---8---8--7--7--5--5--5--5--6--6--6--6------/
b--10--10--10--10—-x--x--5--5--5--5--6--6--6--6-------/
g-9---9---9---9---7--7--5--5--5--5--7--7--7--7--------/
d-----------------------------------------------------/
a-----------------------------------------------------/
E-----------------------------------------------------/


e-----------------------------------/
b----10--7--8--5--------------------/
g---9---7--7--5---------------------/
d-10---7--8--5---7-5----------------/
a--------------------7-6-5----------/
E--------------------------8-5------/


e-------------------7------7------5------5-------5----/
b----10--7--8--5---7-7----7-7----5-5----5-5-----5-----/
g---9---7--7--5---x------x------x------x-------x------/
d-10---7--8--5---4----4-4----3-3----3-3-----3-3-------/
a-----------------------------------------------------/
E-----------------------------------------------------/



e---10--10--10--10----9--------(9)h10p9-----10--8--8--8---5--5--5--5-/
b--8---8---8---8----10---10-(10)-------10--8---8--8--8---6--6--6--6--/
g-9---9---9---9---11---11-----------------9---9--9--9---7--7--7--7---/
d--------------------------------------------------------------------/
a--------------------------------------------------------------------/
E--------------------------------------------------------------------/



e-----------------------------------------------------/
b----7--7--7--7--7--7--7--7--5--5--5--5-------1-------/
g---7--7--7--7--6--6--6--6--4--4--4--4----2---2-------/
d--7--7--7--7--7--7--7--7--5--5--5--5----3----3-------/
a-----------------------------------------------------/
E------------------------------------------3-(3)------/



e----8---8---8---8--7--7--5--5--5--5--6--6--6--6------/
b--10--10--10--10—-x--x--5--5--5--5--6--6--6--6-------/
g-9---9---9---9---7--7--5--5--5--5--7--7--7--7--------/
d-----------------------------------------------------/
a-----------------------------------------------------/
E-----------------------------------------------------/


e-----------------------------------/
b----10--7--8--5--------------------/
g---9---7--7--5---------------------/
d-10---7--8--5---7-5----------------/
a--------------------7-6-5----------/
E--------------------------8-5------/


e-------------------7------7------5------5-------5----/
b----10--7--8--5---7-7----7-7----5-5----5-5-----5-----/
g---9---7--7--5---x------x------x------x-------x------/
d-10---7--8--5---4----4-4----3-3----3-3-----3-3-------/
a-----------------------------------------------------/
E-----------------------------------------------------/


Un poco de disto y menos phraser.

e------------------------------------/
b------------------------------------/
g---------------------2---4----------/
d------7-6-5-4----3------------------/ X9
a---------------5---5---5---5-4-4----/
E-5-5--------------------------------/



e--------------------------/
b--------------------------/
g--------------------------/
d------7-6-5-4---3-7-9~~---/
a--------------3--3-3------/
E--5-5---------------------/



(Bajo) E-5-5-/ |A|


|Amaj7|


e------------------------0-00------------0--------------/
b----4------------2-2---0-0--------------2--------------/
g---1------------1-----1-----------------1---------|*|--/
d--2------------2-----2------------------2--------------/
a-0------------0-----0-------------------0--------------/
E-------------------------------------------------------/

Una niña descalza ronda en la playa
Como gota de lluvia sobre la zarza


|*|
e-------------------------/
b—9h10p9h10s1212s14-(14/)-/
g-------------------------/
d-------------------------/
a-------------------------/
E-------------------------/




e----------------------8------------------7----------/
b---------------------8------------------5-----------/
g-----7—9s11---------5------------------5------------/
d—7s9--9-----6------5------------------5-------------/
a------------------7------------------7--------------/
E-----------------5------------------5---------------/

Los aldeanos se van durmiendo


I II III IV V
e-------5--------5----------------5-----------9------/
b------6--------5--------8-------5----------10-------/
g-----7--------5--------9-------5---------10---------/
d----7--------7--------9-------7--------11-----------/
a---5--------7--------x-------7----------------------/
E-----------5--------8-------5---------(9)-----------/


I II III IV V
En la estrella fugaz conoce su nombre Así como el viento viaja


e---------5-----------------------------------/
b--------5-----------8------------------------/
g-------5------------9-------*|bajo|----------/
d------7-------------9------------------------/
a-----7--------------x-------*|guitarra|------/
E----5---------------8------------------------/

Conociendo el aire del lugar



*|bajo|

e-----------------------------------------------------/
b-----------------------------------------------------/
g-----------------------------------------------------/
d-----------------------------------------------------/
a-5--7-8-10-12-14--15-15------------------------------/
E-----------------------------------------------------/


*|guitarra|

e---12-10---------------------------------------------/
b----------10-8-10----12h13p12h13p12-10---12´(13)-----/
g-----------------------------------------------------/
d-----------------------------------------------------/
a-----------------------------------------------------/
E-----------------------------------------------------/

Hasta ahora voy esto, despues el resto



Cualquier duda a [email protected]


ACORDES PARA GUITARRA

PIANO UKELELE


COMENTARIOS

Aún no hay comentarios,

¡escribe el primero!

Escribe una pregunta, duda o comentario sobre esta canción, te responderemos a la brevedad.

Las más tocadas de Invisible

Toca una Canción al Azar de Invisible