Los libros de la buena memoria
Invisible
Acordes

Subida por Claurenata
Álbum: El jardín de los presentes ( 1976)


Más Versiones
Ver. 2 Ver. 3 Ver. 4 Ver. 5
+A
-A
Intro: Em7 Am7 Bm7 CMaj7/G (x 2)

Em7 Am7 Bm7 CMaj7/G
El vino entibia sueños al jadear
Em7 Am7 Bm7 CMaj7/G
desde su boca de verdeado dulzor
Em7 Am7 Bm7 CMaj7/G
y entre los libros de la buena memoria
Em7 Am7 Bm7 CMaj7/G
se queda oyendo como un ciego frente al mar.

Bm7 Em7 Bm7 Em
Mi voz le llegará, mi boca también
Bm7 Em7
tal vez le confiaré
Am7 Bm7 CMaj7/G
que eras el vestigio del futuro.

Rojas y verdes, luces del amor
prestidigitan bajo un halo de rouge
¿Qué sombra extraña te ocultó de mi guiño
que nunca oíste la hojarasca crepitar?

Pues yo te escribiré, yo te haré llorar
mi boca besará toda la ternura de tu acuario.

RIFF (repite 3 veces y 1 con el riff 2)
e----------------------------------------------
b----------------------------------------------
g-9>11--11>12--12>14>12--14--16-16--9----------
d----------------------------------------------
a-7>9---9>10---10>12>10--12--14-14--7----------
E-0-----0-------0---------0---------0--3-2-0---

>:Arrastra
riff 2
e----------------------------------------------
b------------------------------------17--------
g-9>11--11>12--12>14>12--14--16-16-------------
d------------------------------------14--------
a-7>9---9>10---10>12>10--12--14-14-------------
E-0-----0-------0---------0--------------3-2-0-

Mas si la luna enrojeciera en sed
o las impalas recorrieran tu estante
no volverías a triunfar en tu alma
yo sé que haría largos viajes por llegar.

Parado estoy aquí, esperándote
todo se oscureció
ya no sé si el mar descansará.

SOLO

Habrá crecido un tallo en el nogal
la luz habrá tiznado gente sin fe
esta botella se ha vaciado también
que ni los sueños se cobijan del rumor.

Licor no vuelvas ya, deja de reír
no es necesario más
ya se ven los tigres en la lluvia.

fin

Acordes:
E A D B G E
Em7 0 2 2 0 3 0
Am7 x 0 2 0 1 0
Bm7 x 2 4 2 3 2
CMaj7/G 3 3 2 0 0 0


Espero les agrade, cualquier cosa manden un mail


ACORDES PARA GUITARRA

PIANO UKELELE
Em7
Am7
Bm7
Em
E
A
D
B
G


COMENTARIOS

Aún no hay comentarios,

¡escribe el primero!

Escribe una pregunta, duda o comentario sobre esta canción, te responderemos a la brevedad.

Las más tocadas de Invisible

Toca una Canción al Azar de Invisible
Em7
Am7
Bm7
Em
E
A
D
B
G