Viejos ratones del tiempo
Invisible
Acordes

Subida por chordboy


Más Versiones
Ver. 2 Ver. 3 Ver. 4 Ver. 5

Cambiar Cifrado
Americano Latino

Cambiar Tonalidad
-1 +1

Partir Pantalla Imprimir FAQ

+A
-A
Otro buen simple del 74, donde quisiera estar…


e--*12*------/----------------------------------*12*------/
b----*12*----/-----------12-10h12s9-9h10s7--------*12*----/
g------*12*--/------------------------------7-------*12*--/
d------------/-------12-----------------------------------/
a------------/----12-12-----------------------------------/
E------------/-10----10-----------------------------------/


(00:21)

D A Bm
Viejos ratones del tiempo


e-2------------------------------------------------------/
b-3----------------------------------------------------0-/
g-4----------------------------------------------------1-/
d-4-----4----------------0h2---4p2p0------4p2p0--------2-/
a-2-0-2--(2)-4-0-2-----2h4-----------4p2p0-------4p2p0-2-/
E------------------2h5---------------------------------0-/

E D F*/E*/A*/B*/G*
conozco bien mi camino

F* E* A* B* G*

e---5---4--------------/
b---6---5--------------/
g---5---4---6---8---4--/
d-----------7---9---5--/
a-----------7---9---5--/
E-------0---5---7---3--/

D A Bm
nubes y enigmas me rondan

e-2------------------------------------------------------/
b-3----------------------------------------------------0-/
g-4----------------------------------------------------1-/
d-4-----4----------------0h2---4p2p0------4p2p0--------2-/
a-2-0-2--(2)-4-0-2-----2h4-----------4p2p0-------4p2p0-2-/
E------------------2h5---------------------------------0-/

E E7*t/10
solo quiero descansar

E7*t/10

E-x-/
B-8-/
G-7-/
D-6-/
A-7-/
E-0-/


e----------------------------/
b---7--5--3------------------/
g---7--6--4------------------/
d---7--6--4----4h2--------44-/
a---5--4--2--------(4)--2-22-/
E----------------------------/

donde hay sol


e---2----4----5---/
b---2----4----5----/
g---2----4----6------/
d---4----4----7-----/
a---4----6----7-------/
E---2----4----5-------/

puesto que


e---1-----------0------0--------------------/
b---1-----------0------0----------------6---/
g---2-----------1-----------------------5---/
d---3-----------2-----------------------6---/
a---3-----------2--------------5--7-----4---/
E---1-----------0--------------3--5----(4)--/

no reprimo mi llanto, sí es verdad...

e---1-----------0------0--------------------/
b---1-----------0------0----------------6---/
g---2-----------1-----------------------5---/
d---3-----------2-----------------------6---/
a---3-----------2--------------5--7-----4---/
E---1-----------0--------------3--5----(4)--/

En la música lágrimas se dan


| Am / Dm |

se dan y es así

arreglo

e---7--------5---/
b-----5------6---/
g-------5----7---/
d----------------/
a----------------/
E----------------/


|||Solo|||


Bm!

e--*12*------/----------------------------------*12*------/
b----*12*----/-----------12-10h12s9-9h10s7--------*12*----/
g------*12*--/------------------------------7-------*12*--/
d------------/-------12-----------------------------------/
a------------/----12-12-----------------------------------/
E------------/-10----10-----------------------------------/


D A Bm
Por la colina de nácar

e-2------------------------------------------------------/
b-3----------------------------------------------------0-/
g-4----------------------------------------------------1-/
d-4-----4----------------0h2---4p2p0------4p2p0--------2-/
a-2-0-2--(2)-4-0-2-----2h4-----------4p2p0-------4p2p0-2-/
E------------------2h5---------------------------------0-/

E D F*/E*/A*/B*/G*
oigo reír otros vientos


F* E* A* B* G*

e---5---4--------------/
b---6---5--------------/
g---5---4---6---8---4--/
d-----------7---9---5--/
a-----------7---9---5--/
E-------0---5---7---3--/

D A Bm
Viejos ratones del tiempo

e-2------------------------------------------------------/
b-3----------------------------------------------------0-/
g-4----------------------------------------------------1-/
d-4-----4----------------0h2---4p2p0------4p2p0--------2-/
a-2-0-2--(2)-4-0-2-----2h4-----------4p2p0-------4p2p0-2-/
E------------------2h5---------------------------------0-/

E E7*t/10
no pretendan ignorar


E7*t/10

E-x-/
B-8-/
G-7-/
D-6-/
A-7-/
E-0-/




e----------------------------/
b---7--5--3------------------/
g---7--6--4------------------/
d---7--6--4----4h2--------44-/
a---5--4--2--------(4)--2-22-/
E----------------------------/

todo el sol

e---2----4----5---/
b---2----4----5----/
g---2----4----6------/
d---4----4----7-----/
a---4----6----7-------/
E---2----4----5-------/

todo el mar...


Termina con base de |A|G|D|G|D|A|G|D|

A G D G D A G D
Y el olivo de los montes tiene sal,
y el otoño que se esfuma viene y va...

El que corre muy aprisa nunca llega...
La noche con luz se mira hasta el día...
Y el olivo de los montes tiene sal...
Y el otoño que se esfuma viene y va...
La noche con luz se mira hasta el día...
No, no sé nunca tu nombre
¿dónde estás?


Termina con D

B-3-/
G-2-/
D-0-/



**: harmónico
S: slide
H: hammer on
P: pull off


Cualquier duda a [email protected]


ACORDES PARA GUITARRA

PIANO UKELELE
D
A
Bm
E
F
E
A
B
G
B
G
Bm


COMENTARIOS

Aún no hay comentarios,

¡escribe el primero!

Escribe una pregunta, duda o comentario sobre esta canción, te responderemos a la brevedad.

Las más tocadas de Invisible

Toca una Canción al Azar de Invisible
D
A
Bm
E
F
E
A
B
G
B
G
Bm