Estado de coma
Invisible
Acordes

Subida por Fanny


Más Versiones
Ver. 2 Ver. 3 Ver. 4 Ver. 5

Cambiar Cifrado
Americano Latino

Cambiar Tonalidad
-1 +1

Partir Pantalla Imprimir FAQ

+A
-A
(Revisada y corregida nota por nota. Ademas le puse una digitacion mas
fácil)
Aca les va un tema de ese discazo de Invisible. Prueben esta tablatura

G|----------------------------------------------------------
D|-------------------7----------------10-7----------10-7----
A|-----------5--5-7-8---7---7---7-10-7-----10-7-10-7----10-7
E|5--55-7-8-------------------------------------------------

G|-----------------------------------------------------------
D|-------------------------------------10-7----------10-7----
A|----------5--5-------7-777--7--7-10-7-----10-7-10-7----10-7
E|5--5-7-8------0-2-3---0------------------------------------
“Cuatro cables se tocaron”
G|--------------------------------------------------------
D|------------555-7------------------10-7----------10-7---
A|-----------5-----555-7--777—7-10-7-----10-7-10-7----10-7
E|5--5-7-8--8---------------------------------------------
“Las paredes desprendidas”
G|----------------5----------------------------------------
D|-----------7-5-7-7-5---------------10-7----------10-7----
A|----------5---------7--777---7-10-7-----10-7-10-7----10-7
E|5--5-7-8-------------------------------------------------
“Un avion salio a la calle”
G|------------77-5-7-5----------------------------------------
D|----7-5-------------7-5---------------10-7----------10-7----
A|-------7-6-5-----------7--777---7-10-7-----10-7-10-7----10-7
E|5--5--------------------------------------------------------
“La mujer quemo un corpiño”
G|-------------------------------|
D|-------------------------------|
A|-----------5--5--------777757--|
E|5-55-7-8--8----0-2-3-0---------|
“Estado de coma”
G|---------------------------------------------8-9-10-11-10-9-8---------
D|------------------------------------8-9-10-11-----------------9-8-----
A|-7--8--9-------6-7-8-9-------6-7-8-9------------------------------7-8-
E|--------6-7-8-9-------6-7-8-9-----------------------------------------
“Estado de coma”
G|--------------------------------------8-9-10-11-10-9-8---------
D|-----------------------------8-9-10-11-----------------9-8-----
A|9-------6-7-8-9-------6-7-8-9------------------------------9-10
E|-6-7-8-9-------6-7-8-9-----------------------------------------
“Estado de coma”
G|--------------------------------------------------10-11-12-13-12-11-10--
D|---------------------------------------10-11-12-13--------------------11
A|11----------8-9-10-11---------8-9-10-11---------------------------------
E|---8-9-10-11---------8-9-10-11------------------------------------------
“Estado de coma”
G|---------------------------------------------------------10-11-12-13-12
D|10--------------------------------------------10-11-12-13--------------
A|---9-10-11---------8-9-10-11---------8-9-10-11-------------------------
E|----------8-9-10-11---------8-9-10-11----------------------------------

G|11-10--------7-------9-------9-----------|-------------
D|-----11-10-9--------9------9------12-----|-------------
A|----------------7--------7------10--10-9-|--9p8---8p7--
E|-----------------------------------------|-------------
3 veces
G|----------------------------|------------------------------
D|-------10-7----------10-7---|-------10-7----------10-7-----
A|-7-10-7-----10-7-10-7-------|-7-10-7-----10-7-10-7-----10-7
E|-------------------------(0)|-------------------------------

G|----------------------------------------------------------
D|-----------------------------------10-7----------10-7-----
A|-----------5-5-------7--7-7--7-10-7-----10-7-10-7-----10-7
E|5--55-7-8-8---0-2-3------0--------------------------------

G|--------------------------------------------------------
D|----------------5----------------10-7----------10-7-----
A|----------5--7-8---7--777--7-10-7-----10-7-10-7-----10-7
E|5--5-7-8------------------------------------------------

G|---------------7-7-5-7-5---------------------------------------
D|---7-5-7-5--------------7-5-------------10-7----------10-7-----
A|----------7---5------------7--777-7-10-7-----10-7-10-7-----10-7
E|5--------------------------------------------------------------

G|---------------------------------------------------------------
D|----------------------------------------10-7----------10-7-----
A|----------3-5-----------------777-7-10-7-----10-7-10-7-----10-7
E|5--5-7-8-----0-2-2-3-5--5-0------------------------------------

G|---------------------------------------------------------
D|----------------------------------10-7----------10-7-----
A|-----------5-5---------777--7-10-7-----10-7-10-7-----10-7
E|5--55-7-8-----0-2-3--0-----------------------------------
“Mis amigos ya se fueron”
G|---------------------------------------------------------------
D|--------------5-6-7-7-------------------10-7----------10-7-----
A|------------5---------5-5-7--777--7-10-7-----10-7-10-7-----10-7
E|5--55-7-8--8---------------------------------------------------
“La mama se fue a la guerra”
G|-------------------------------------------------------------
D|--------------------------------------10-7----------10-7-----
A|-----------5---------------777--7-10-7-----10-7-10-7-----10-7
E|5--5-7-8--8--2-2-5-5-2-2-0-----------------------------------
“Mis vecinos se pelean”
G|----------------5----------------------------------------------
D|-----------5-5-7-----------5------------10-7----------10-7-----
A|----------5------5-5-7--7-7-7777--7-10-7-----10-7-10-7-----10-7
E|5--5-7-8-------------------------------------------------------
“Una voz cambio una fiesta”
G|--------------------------------|
D|--------------------------------|
A|------------5--5----------7-777-|
E|5--55-7-8--8----0-2-3--0---0----|
“Estado de coma”
G|---------------------------------------------8-9-10-11-10-9-8---------
D|------------------------------------8-9-10-11-----------------9-8-----
A|-7--8--9-------6-7-8-9-------6-7-8-9------------------------------7-8-
E|--------6-7-8-9-------6-7-8-9-----------------------------------------
“Estado de coma”
G|--------------------------------------8-9-10-11-10-9-8---------
D|-----------------------------8-9-10-11-----------------9-8-----
A|9-------6-7-8-9-------6-7-8-9------------------------------9-10
E|-6-7-8-9-------6-7-8-9-----------------------------------------
“Estado de coma”
G|--------------------------------------------------10-11-12-13-12-11-10--
D|---------------------------------------10-11-12-13--------------------11
A|11----------8-9-10-11---------8-9-10-11---------------------------------
E|---8-9-10-11---------8-9-10-11------------------------------------------
“No es lo que quiero”
G|---------------------------------------------------------10-11-12-13-12
D|10--------------------------------------------10-11-12-13--------------
A|---9-10-11---------8-9-10-11---------8-9-10-11-------------------------
E|----------8-9-10-11---------8-9-10-11----------------------------------

G|11-10--------7--------9-------9--------------|
D|-----11-10-9---------9------9------12--------|
A|-----------------7--------7------10--10-9----|
E|---------------------------------------------|

p: pull off
(x): nota opcional

Mientras sus musicas se sigan tocando y escuchando el carpo y el
Flaco jamas moriran, viviran eternamente en la memoria de todos...
e-mail: [email protected]


ACORDES PARA GUITARRA

PIANO UKELELE


COMENTARIOS

Aún no hay comentarios,

¡escribe el primero!

Escribe una pregunta, duda o comentario sobre esta canción, te responderemos a la brevedad.

Las más tocadas de Invisible

Toca una Canción al Azar de Invisible