Back On The Streets (Acordes)

Saxon

Full Álbum: Innocence Is No Excuse (1985)
Subida por ALANCORO35

Compartir


Cambiar Cifrado
Americano Latino

Cambiar Tonalidad
-1 +1
Imprimir FAQ
+A
-A

Texto

Desplazamiento

Transportador

Color de Fondo

Archivos

TONALIDAD, TAMAÑO, CIFRADO, SCROL.

Nos renovamos: Ahora puedes cambiar TODO haciendo clic en ICONO de la Guitarra () que aparece en la parte inferior de esta página.


LETRA CON ACORDES

standard tuning

Intro:
|-----------------|
|-----------------|
|-5-5-5-5-5-5-5-5-|
|-----------------|

Verse: Variation 1:
|-----------------|--------------------------|
|-----------------|-----------5-7-5----------|
|-----------------|---------7------7---------|
|-5-5-5-5-5-5-5-5-|-5-5-5-5----------5-5-5-5-|

Chorus:
|---------------------------------------|
|---------------------------------------|
|-3-3-3-3-3-3-3-3-3-/-5-5-5-5-5-5-5-5-|
|---------------------------------------|

Bridge & Solo Part
I don't know, sorry !
At the and play this:
|-----5----------<-----------------|
|----5-------5---<-----------------|
|-3-------3----3-<-3-3-3-3-3-3-3-3-|
|----------------<-----------------|

Video Clip de Back On The Streets


ACORDES PARA GUITARRA

PIANO UKELELE


TOP 20: Las más tocadas de Saxon


Toca una Canción al Azar de Saxon

Acordes

Cerrar

11.58

x

46