Taking Your Chances (Acordes)

Saxon

Full Álbum: Strong Arm of the Law (1980)
Subida por 5Intrepid

Compartir


Cambiar Cifrado
Americano Latino

Cambiar Tonalidad
-1 +1
Imprimir FAQ
+A
-A

Texto

Desplazamiento

Transportador

Color de Fondo

Archivos

TONALIDAD, TAMAÑO, CIFRADO, SCROL.

Nos renovamos: Ahora puedes cambiar TODO haciendo clic en ICONO de la Guitarra () que aparece en la parte inferior de esta página.


LETRA CON ACORDES

Riff A
|--------------------------------------------|
|--------------------------------------------|
|--------------------------------------------|Gtr 
|--------------------------------------------| I
|-------------------------7b-7b-7b-----------|
|-0-0-0-0-0-0-0-0-0-0-0-0--------------------|
                                            |
|--------------------------------------------|
|--------------------------------------------|
|-9----7----9----12----9----7----9----12-----|Gtr 
|-9----7----9----12----9----7----9----12-----| II
|-7----5----7----10----7----5----7----10-----|
|--------------------------------------------|

Riff B
|-----------------------|
|-----------------------|
|----9--7-7--6-6--5-----|
|----7--5-5--4-4--3-----
|--0--------------------|
|-----------------------|

Riff C
|--------------------------|
|------------------5-------|
|----------------5---5-----|
|--3-3-3--3/5--------------|
|--3-3-3--3/5--------------|
|--1-1-1--1/3--------------|

Riff D
|--------------------------------------------------|
|--------------------------------------------------|
|--7----5----7----10----7----5----7----10----------|
|--7----5----7----10----7----5----7----10----------|
|--5----3----5----8-----5----3----5----8-----------|
|--------------------------------------------------|

Riff E Git I
|------------------------------------------------|
|------------------------------------------------|
|------------------------------------------------|
|------------------------------------------------|
|--------7-------5-------4-------3p2-------------|
|--0-0-0---0-0-0---0-0-0---0-0-0-----3-----------|

Riff E Git II
|----------------------------------------------------|
|----------------------------------------------------|
|--9----9-9----7----7-7----6----6-6----5----5--------|
|--9----9-9----7----7-7----6----6-6----5----5--------|
|--7----7-7----5----5-5----4----4-4----3----3--------|
|----------------------------------------------------|

Video Clip de Taking Your Chances


ACORDES PARA GUITARRA

PIANO UKELELE
A
B
C
D


TOP 20: Las más tocadas de Saxon


Toca una Canción al Azar de Saxon

Acordes

Cerrar
A
B
C
D

00.02

x

148