Solid Ball Of Rock (Acordes)

Saxon

Full Álbum: Solid Ball of Rock (1990)
Subida por jazlopez84

Compartir


Cambiar Cifrado
Americano Latino

Cambiar Tonalidad
-1 +1
Imprimir FAQ
+A
-A

Texto

Desplazamiento

Transportador

Color de Fondo

Archivos

TONALIDAD, TAMAÑO, CIFRADO, SCROL.

Nos renovamos: Ahora puedes cambiar TODO haciendo clic en ICONO de la Guitarra () que aparece en la parte inferior de esta página.


LETRA CON ACORDES

-----------|
-----------|
-----------|
----8------| (palm muted so that you just hear a crunchy sound)
----6------|      
-----------|

-------------------|
-------------------|
----6--------------|
----4------6-8-----|
-----------4-6-----|
-------------------|
(4 times)

Riff:
--------------------------------------------------------|
--------------------------------------------------------|
---6-6-----------6-6-----------6-6-----------6-6--------|
---4-4----6-8----4-4----6-8----4-4----6-6----4-4----6-8-|
----------4-6-----------4-6-----------4-3---------- 4-6-|
--------------------------------------------------------|
 ( 3 times)

Chorus:
------------------------------------------|
------------------------------------------|
------------------------------------------|
-----88888--8*8*--8--8*8*--8--8*8*--8-----|
-----66666--6*6*--6--6*6*--6--6*6*--6-----|
------------------------------------------|

--------------------------------------------|
--------------------------------------------|
--------------------------------------------|
-----66666--6*6*--6--6*6*--6--6*6*--6-------|
-----44444--4*4*--4--4*4*--4--4*4*--4-------|
--------------------------------------------|

--------------------------------------------------------------|
--------------------------------------------------------------|
--------------------------------------------------------------|
-----------------------------------------8-8-8-8-8-8-8-8-8-8--|
-----66666--6*6*--6--6*6*--6--6*6*--6----6-6-6-6-6-6-6-6-6-6--|
-----44444--4*4*--4--4*4*--4--4*4*--4-------------------------|

Riff:
--------------------------------------------------------|
--------------------------------------------------------|
---6-6-----------6-6-----------6-6-----------6-6--------|
---4-4----6-8----4-4----6-8----4-4----6-6----4-4----6-8-|
----------4-6-----------4-6-----------4-3---------- 4-6-|
--------------------------------------------------------|

Chorus:
------------------------------------------|
------------------------------------------|
------------------------------------------|
-----88888--8*8*--8--8*8*--8--8*8*--8-----|
-----66666--6*6*--6--6*6*--6--6*6*--6-----|
------------------------------------------|

--------------------------------------------|
--------------------------------------------|
--------------------------------------------|
-----66666--6*6*--6--6*6*--6--6*6*--6-------|
-----44444--4*4*--4--4*4*--4--4*4*--4-------|
--------------------------------------------|

--------------------------------------------------------------|
--------------------------------------------------------------|
--------------------------------------------------------------|
-----------------------------------------8-8-8-8-8-8-8-8-8-8--|
-----66666--6*6*--6--6*6*--6--6*6*--6----6-6-6-6-6-6-6-6-6-6--|
-----44444--4*4*--4--4*4*--4--4*4*--4-------------------------|
---------------------------------------------------------|
---------------------------------------------------------|
---8-8-----------8-8-----------8-8-----------8-8---------|
---6-6----8-10---6-6----8-10---6-6----8-8----6-6----8-10-|
----------6-8-----------6-8-----------6-5---------- 6-8--|
---------------------------------------------------------|

--------------------------------------------------------|
--------------------------------------------------------|
---6-6-----------6-6-----------6-6-----------6-6--------|
---4-4----6-8----4-4----6-8----4-4----6-6----4-4----6-8-|
----------4-6-----------4-6-----------4-3---------- 4-6-|
--------------------------------------------------------|

-------------------        e ---------------------------------------------|
-------------------         b --------------------------------------------|
----6--------------    then    g ---6-------------------------------------|
----4---6---8-----        d ---4---6---4-4*4*4*4*4*4*4*4*4*4*4*4*4*-------|
--------4---6-----        a -------4---2-2*2*2*2*2*2*2*2*2*2*2*2*2*-------|
E -------------------        E ---------------------------------------------|
(3times)

Riff:
--------------------------------------------------------|
--------------------------------------------------------|
---6-6-----------6-6-----------6-6-----------6-6--------|
---4-4----6-8----4-4----6-8----4-4----6-6----4-4----6-8-|
----------4-6-----------4-6-----------4-3---------- 4-6-|
--------------------------------------------------------|


Chorus: ( 2 times)
------------------------------------------|
------------------------------------------|
------------------------------------------|
-----88888--8*8*--8--8*8*--8--8*8*--8-----|
-----66666--6*6*--6--6*6*--6--6*6*--6-----|
------------------------------------------|

--------------------------------------------|
--------------------------------------------|
--------------------------------------------|
-----66666--6*6*--6--6*6*--6--6*6*--6-------|
-----44444--4*4*--4--4*4*--4--4*4*--4-------|
--------------------------------------------|

--------------------------------------------------------------|
--------------------------------------------------------------|
--------------------------------------------------------------|
-----------------------------------------8-8-8-8-8-8-8-8-8-8--|
-----66666--6*6*--6--6*6*--6--6*6*--6----6-6-6-6-6-6-6-6-6-6--|
-----44444--4*4*--4--4*4*--4--4*4*--4-------------------------|

Video Clip de Solid Ball Of Rock


ACORDES PARA GUITARRA

PIANO UKELELE
E


TOP 20: Las más tocadas de Saxon


Toca una Canción al Azar de Saxon

Acordes

Cerrar
E

11.23

x

191