Call Of The Wild (Acordes)

Saxon

Full Álbum: Innocence Is No Excuse (1985)
Subida por Taty

Compartir


Cambiar Cifrado
Americano Latino

Cambiar Tonalidad
-1 +1
Imprimir FAQ
+A
-A

Texto

Desplazamiento

Transportador

Color de Fondo

Archivos

TONALIDAD, TAMAÑO, CIFRADO, SCROL.

Nos renovamos: Ahora puedes cambiar TODO haciendo clic en ICONO de la Guitarra () que aparece en la parte inferior de esta página.


LETRA CON ACORDES

e|--------------------------------------------------------------------------|
B|--------------------------------------------------------------------------|
G|--------------------------------------------------------------------------|
D|--9-9--9---9-9----5----------2-------7---7-7---4---4-4---5---5-5---9------|
A|--7-7--7---7-7----3----2-3-5---3-2---5---5-5---2---2-2---3---3-3---7------|
E|--------------------------------------------------------------------------|

e|--------------------------------------------------------------------------|
B|--------------------------------------------------------------------------|
G|--------------------------------------------------------------------------|
D|--9-9--9---9-9----5----------2-------7---7-7----------2h4h5-54hold-------|
A|--7-7--7---7-7----3----2-3-5---3-2---5---5-5----2h4h5---------------------|
E|--------------------------------------------------------------------------|

e|--------------------------------------------------------------------------|
B|--------------------------------------------------------------------------|
G|--------------------------------------------------------------------------|
D|--9-7-9-------7-9-9-9-------7-9--------7-6-4------------------------------|
A|--7-5-7hold---5-7-7-7hold---7-9--------5-4-2------------------------------|
E|----------------------------5-7hold-----------3-2-0-----------------------|
                    .
e|--------------------------------------------------------------------------|
B|--------------------------------------------------------------------------|
G|--------------------------------------------------------------------------|
D|--9------5------7------4--5-----------------------------------------------|
A|--7------3------5------2--3-----------------------------------------------|
E|--------------------------------------------------------------------------|

e|--------------------------------------------------------------------------|
B|--------------------------------------------------------------------------|
G|--------------------------------------------------------------------------|
D|--7-----3-----5-----3--5--------------------------------------------------|
A|--5-----5-----5-----1--3--------------------------------------------------|
E|--------------3-----------------------------------------------------------|

e|--------------------------------------------------------------------------|
B|--------------------------------------------------------------------------|
G|-10----10---10---10-----10-----10---10-----10-----10---10-----10-----10---|
D|-12----12---12---10-----10-----10----9------9------9----8------8------8---|
A|---0-0---0-0---0----0-0----0-0----0----0-0----0-0----0----0-0----0-0----0-|
E|--------------------------------------------------------------------------|

e|--------------------------------------------------------------------------|
B|----------7-8-10----------------------------------------------------------|
G|----6-7-9-----------------------------------------------------------------|
D|--7-----------------------------------------------------------------------|
A|--7-----------------------------------------------------------------------|
E|--5-----------------------------------------------------------------------|

e|--------------------------------------------------------------------------|
B|--------------------------------------------------------------------------|
G|--------------------------------------------------------------------------|
D|--7-----3-----5-----3--5----(5-5-5-5)-------------------------------------|
A|--5-----5-----5-----1--3----(5-5-5-5)-------------------------------------|
E|--------------3-------------(3-3-3-3)-------------------------------------|

Video Clip de Call Of The Wild


ACORDES PARA GUITARRA

PIANO UKELELE


TOP 20: Las más tocadas de Saxon


Toca una Canción al Azar de Saxon

Acordes

Cerrar

19.02

x

231