Compartir


Cambiar Cifrado
Americano Latino

Cambiar Tonalidad
-1 +1
Imprimir FAQ
+A
-A

Texto

Desplazamiento

Transportador

Color de Fondo

Archivos

TONALIDAD, TAMAÑO, CIFRADO, SCROL.

Nos renovamos: Ahora puedes cambiar TODO haciendo clic en ICONO de la Guitarra () que aparece en la parte inferior de esta página.


LETRA CON ACORDES

standard tuning
     
Part 1 (01:22)

|-------------------------|
|-------------------------|
|-0-0-0-0-----------------|
|---------1-1-1-1-3-3-3-3-| 1x

Part 2 (01:33)

|-------------------------------------------------|
|-------------------------------------------------|
|-3-3-3-3-3-3-3-3-5-5-5-5-5-5-5-5-0-0-0-0-0-0-0-0-|
|-------------------------------------------------|

Variation:

|-------------------------------------------------|
|-------------3-5---------------------------------|
|-3-3-3-3-3-3-----5-5-5-5-5-5-5-3-0-0-0-0-0-0-0-0-|
|-------------------------------------------------|

easy !!!

Video Clip de Rockin Again


ACORDES PARA GUITARRA

PIANO UKELELE


TOP 20: Las más tocadas de Saxon


Toca una Canción al Azar de Saxon

Acordes

Cerrar

05.08

x

51