Motorcycle Man (Acordes)

Saxon

Full Álbum: Wheels of Steel (1980)
Subida por gared777

Compartir


Cambiar Cifrado
Americano Latino

Cambiar Tonalidad
-1 +1
Imprimir FAQ
+A
-A

Texto

Desplazamiento

Transportador

Color de Fondo

Archivos

TONALIDAD, TAMAÑO, CIFRADO, SCROL.

Nos renovamos: Ahora puedes cambiar TODO haciendo clic en ICONO de la Guitarra () que aparece en la parte inferior de esta página.


LETRA CON ACORDES

|--------------(2)----------------|
|--2---2-------(3)----------2--2--|
|--2---2-------(2)----------2--2--|
|--2---2-------(0)----------2--2--|
|--0---0--3p,0--------------0--0--|
|---------------------------------|

|--------------(2)----------------|
|------2-------(3)----------2--2--|
|------2-------(2)----------2--2--|
|------2-------(0)----------2--2--|
|-3p,0-0--3p,0--------------0--0--|
|---------------------------------|

|--------------(2)----------------|
|------2-------(3)----------2--2--|
|------2-------(2)----------2--2--|
|------2-------(0)----------2--2--|
|-3p,0-0--3p,0--------------0--0--|
|---------------------------------|

|--------------(2)----------------|
|------2-------(3)----------2--2--|
|------2-------(2)----------2--2--|
|------2-------(0)----------2--2--|
|-3p,0-0--3p,0--------------0--0--|
|---------------------------------|

|--------------(2)----------------|
|------2-------(3)----------2--2--|
|------2-------(2)----------2--2--|
|------2-------(0)----------2--2--|
|-3p,0-0--3p,0--------------0--0--|
|---------------------------------|

|--------------(2)----------------|
|------2-------(3)-------------2--|
|------2-------(2)-------------2--|
|------2-------(0)-------------2--|
|-3p,0-0--3p,0----------0-3p,0-0--|
|---------------------------------|

|-------------------------------------------------------------------|
|-(7)--------10--(12)----------------(7)--------10--(12)------------|
|-(7)--------10--(12)----------------(7)--------10--(12)------------|
|-(7)--------10--(12)----------------(7)--------10--(12)------------|
|-(5)--------8---(10)----------------(5)--------8---(10)------------|
|-------------------------------------------------------------------|

|-------------------------------------------------------------------|
|-------------------------------------------------------------------|
|-------------------------------------------------------------------|
|-------------------------------------------------------------------|
|-2.2.2.2.-(16 times)--5.5.5.5.-(16 times)--------------------------|
|-------------------------------------------2.2.2.2-(16 times)------|

|-------------------------------------------------------------------|
|-10-10-10-10-10-10-(10)------9-9-9-9-9-9-(9)------8-8-8-8-8-8-(8)--|
|-10-10-10-10-10-10-(10)------9-9-9-9-9-9-(9)------8-8-8-8-8-8-(8)--|
|-10-10-10-10-10-10-(10)------9-9-9-9-9-9-(9)------8-8-8-8-8-8-(8)--|
|-8--8--8--8--8--8--(8)-------7-7-7-7-7-7-(7)------6-6-6-6-6-6-(6)--|
|-------------------------------------------------------------------|

|-------------------------------------------------------------------|
|-------(6)------------(6)------------(6)------------(6)------------|
|-------(7)------------(7)------------(5)------------(5)------------|
|-0.0.0.(7)------0.0.0.(7)------0.0.0.(7)------0.0.0.(7)------------|
|-------------------------------------------------------------------|
|-------------------------------------------------------------------|

|-------------------------------------------------------------------|
|-------(3)------------(3)------------(3)------3-3-(3)--------------|
|-------(4)------------(4)------------(3)------3-3-(3)--------------|
|-0.0.0.(5)------0.0.0.(5)------0.0.0.(3)------3-3-(3)--------------|
|-------------------------------------------------------------------|
|-------------------------------------------------------------------|

|-------------------------------------------------------------------|
|-10-10-10-10-10-10-(10)------9-9-9-9-9-9-(9)------8-8-8-8-8-8-(8)--|
|-10-10-10-10-10-10-(10)------9-9-9-9-9-9-(9)------8-8-8-8-8-8-(8)--|
|-10-10-10-10-10-10-(10)------9-9-9-9-9-9-(9)------8-8-8-8-8-8-(8)--|
|-8--8--8--8--8--8--(8)-------7-7-7-7-7-7-(7)------6-6-6-6-6-6-(6)--|
|-------------------------------------------------------------------|

|-------------------------------------------------------------------|
|-(7)----7-(7)----7-(7)----7---(7))))))))))))))))))-----------------|
|-(7)----7-(7)----7-(7)----7---(7))))))))))))))))))-----------------|
|-(7)----7-(7)----7-(7)----7---(7))))))))))))))))))-----------------|
|-(5)----5-(5)----5-(5)----5---(5))))))))))))))))))-----------------|
|-------------------------------------------------------------------|

Video Clip de Motorcycle Man


ACORDES PARA GUITARRA

PIANO UKELELE


TOP 20: Las más tocadas de Saxon


Toca una Canción al Azar de Saxon

Acordes

Cerrar

09.09

x

223