See The Light Shining (Acordes)

Saxon

Full Álbum: Wheels of Steel (1980)
Subida por dm101

Compartir


Cambiar Cifrado
Americano Latino

Cambiar Tonalidad
-1 +1
Imprimir FAQ
+A
-A

Texto

Desplazamiento

Transportador

Color de Fondo

Archivos

TONALIDAD, TAMAÑO, CIFRADO, SCROL.

Nos renovamos: Ahora puedes cambiar TODO haciendo clic en ICONO de la Guitarra () que aparece en la parte inferior de esta página.


LETRA CON ACORDES

Riff A
|--------------------------|
|--------------------------|
|--2-------------7---------|
|--2------5------7---------
|--0------5------5---------|
|---------3----------------|

Riff B
|-------------------------|
|-------------------------|
|--2-2--2-2-2-------------|
|--2-2--2-2-2-------------
|--0-0--0-0-0--3p0--------|
|-------------------------|

Riff C
|--------------------------|
|--------------------------|
|--------------------------|
|-------------7--4---------|
|--7--8p7--5---------------|
|--------------------------|

Riff D
|------------------------------|
|------------------------------|
|----------------------2-------|
|--2--4--5----2--4--5--2-------
|--2--4--5----2--4--5--0-------|
|--0--2--3--0-0--2--3----------|

Riff E
|----------------------------------------|
|----------------------------------------|
|--9-9--7----------9-9--7----------------|
|--9-9--7--9-9--7--9-9--7--9-9--7--------|
|--7-7--5--9-9--7--7-7--5--9-9--7--------|
|----------7-7--5----------7-7--5--------|

Riff F
|----------------------------------------|
|----------------------------------------|
|----------7-7--5----------7-7--5--------|
|--7-7--5--7-7--5--7-7--5--7-7--5--------|
|--7-7--5--5-5--3--7-7--5--5-5--3--------|
|--5-5--3----------5-5--3----------------|

Riff G
|------------------------|
|------------------------|
|------------7----5------|
|--7----5----7----5------|
|--7----5----5----3------|
|--5----3----------------|

Riff H
|----------------------|
|----------------------|
|---------------7------|
|--7-7----------7------|
|--7-7----------5------|
|--5-5-----------------|

Fill under Riff E+f
|-------------------------------------------|
|-------------------------------------------|
|-------------------------------------------|
|--7----------5----------3------------------|
|----9-7-7/5----7-5-5/3----5-3--------------|
|------------------------------5-3-3/5------|

Video Clip de See The Light Shining


ACORDES PARA GUITARRA

PIANO UKELELE
A
B
C
D
E
F
G


TOP 20: Las más tocadas de Saxon


Toca una Canción al Azar de Saxon

Acordes

Cerrar
A
B
C
D
E
F
G

09.31

x

133