Backs To The Wall (Acordes)

Saxon

Full Álbum: Saxon (1979)
Subida por Juan

Compartir


Cambiar Cifrado
Americano Latino

Cambiar Tonalidad
-1 +1
Imprimir FAQ
+A
-A

Texto

Desplazamiento

Transportador

Color de Fondo

Archivos

TONALIDAD, TAMAÑO, CIFRADO, SCROL.

Nos renovamos: Ahora puedes cambiar TODO haciendo clic en ICONO de la Guitarra () que aparece en la parte inferior de esta página.


LETRA CON ACORDES

Riff A
|--------------------------------------------------------------------|
|--------------------------------------------------------------------|
|--2--4---4-5--2--4---4-5--2--4---4-5--4--5--7-----------------------
|--2--4---4-5--2--4---4-5--2--4---4-5--4--5--7-----------------------
|--0----0------0----0------0----0------2--3--5-----------------------|
|--------------------------------------------------------------------|
                         
Riff B         
|--------------------------------------------------------------------|
|--------------------------------------------------------------------|
|--2-2--2-2--2-2------0-----0----------------------------------------
|--2-2--2-2--2-2----2-----0------------------------------------------|
|--0-0--0-0--0-0--3-----2--------------------------------------------|
|--------------------------------------------------------------------|

Riff C
|--------------------------------------------------------------------|
|--------------------------------------------------------------------|
|-----------7--9-----------7--9--------------------------------------|
|-----------7--9-----------7--9--------------------------------------
|--4--5--7--5--7--4--5--7--5--7--------------------------------------|
|--2--3--5--------2--3--5--------------------------------------------|

Riff D                                                                    
|--------------------------------------------------------------------|
|--------------------------------------------------------------------|
|--4-4--4-4--4-4------0-----0----------------------------------------
|--4-4--4-4--4-4----4-----0------------------------------------------
|--2-2--2-2--2-2--5-----4--------------------------------------------|
|--------------------------------------------------------------------|

Riff E
|--------------------------------------------------------------------|
|--------------------------------------------------------------------|
|------0-----0-2-2------0-----0-2-2----------------------------------|
|----2-----0---2-2----2-----0---2-2----------------------------------|
|--3-----2-----0-0--3-----2-----0-0----------------------------------|
|--------------------------------------------------------------------|

Riff F
|--------------------------------------------------------------------|
|--------------------------------------------------------------------|
|--------------------------------------------------------------------|
|--3-----3-----3-----3-5-----5-----5-----5---------------------------|
|--1-1-1-1-1-1-1-1-1-1-3-3-3-3-3-3-3-3-3-3---------------------------|
|--------------------------------------------------------------------|

Riff G
|--------------------------------------------------------------------|
|--------------------------------------------------------------------|
|-10101010101010101010-12-12-12-12-12-12-12--------------------------|
|-8-8-8-8-8-8-8-8-8-8--10-10-10-10-10-10-10--------------------------|
|--------------------------------------------------------------------|
|--------------------------------------------------------------------|

Riff H
|--------------------------------------------------------------------|
|--------------------------------------------------------------------|
|--------------------------------------------------------------------|
|--7----5----4----7--------------------------------------------------|
|--7----5----4----7--------------------------------------------------|
|--5----3----2----5--------------------------------------------------|

Video Clip de Backs To The Wall


ACORDES PARA GUITARRA

PIANO UKELELE


TOP 20: Las más tocadas de Saxon


Toca una Canción al Azar de Saxon

Acordes

Cerrar

14.42

x

217