Run For Your Lives (Acordes)

Saxon

Full Álbum: Crusader (1984)
Subida por Fher304

Compartir


Cambiar Cifrado
Americano Latino

Cambiar Tonalidad
-1 +1
Imprimir FAQ
+A
-A

Texto

Desplazamiento

Transportador

Color de Fondo

Archivos

TONALIDAD, TAMAÑO, CIFRADO, SCROL.

Nos renovamos: Ahora puedes cambiar TODO haciendo clic en ICONO de la Guitarra () que aparece en la parte inferior de esta página.


LETRA CON ACORDES

note: "*"s are used to represent the same note X times (listen to the song).% = repeat previous bar
G--------||-------||
D--------||-------||
A--------||-6*----||
E--7*----||-------||  
"Run for your lives"
G--------------------------------------------
D--------------------------------------------
A------------------------4*----4---4---2-1---
E--444-666-777-666-44-66---------4---4-----2-

G----------------------------------
D----------------------------------
A------------------------4*--------
E--444-666-777-666-44-66-----------

G--------------------------
D--------------------------
A--------------------------
E--7---9--4----4---2--0----  
 2:35
G--------------------------------------------
D--------------------------------------------
A------------------------4*----4---4---2-1---
E--444-666-777-666-44-66---------4---4-----2-

G--------------------------------------------
D--------------------------------3---3-------
A------------------------4*----4---4---4-2-1-
E--444-666-777-666-44-66---------------------

G--------------------------------------------
D--------------------------------------------
A------------------------4*----4---4---2-1---
E--444-666-777-666-44-66---------4---4-----2-

G----------------------------------
D----------------------------------
A------------------------4*--------
E--444-666-777-666-44-66-----------

G---------------------------||
D---------------------------||
A---------------------------||
E--7*--9--4*---4*--2--0*----||

Video Clip de Run For Your Lives


ACORDES PARA GUITARRA

PIANO UKELELE


TOP 20: Las más tocadas de Saxon


Toca una Canción al Azar de Saxon

Acordes

Cerrar

17.35

x

99