Compartir


Cambiar Cifrado
Americano Latino

Cambiar Tonalidad
-1 +1
Imprimir FAQ
+A
-A

Texto

Desplazamiento

Transportador

Color de Fondo

Archivos

TONALIDAD, TAMAÑO, CIFRADO, SCROL.

Nos renovamos: Ahora puedes cambiar TODO haciendo clic en ICONO de la Guitarra () que aparece en la parte inferior de esta página.


LETRA CON ACORDES

Intro
|---------------------------------------------------------------------|
|---------------------------------------------------------------------|
|------------------------3----------33-------------------3------------|
|---------------------------------------------------------------------| X1

Riff 1
|---------------------------------------------------------------------|
|---------------------------------------------------------------------|
|------------3--00--3 00--3 00---3 00------3-5------------------------|
|---------------------------------------------------------------------| X6

Riff 2
|---------------------------------------------------------------------|
|---------------------------------------------------------------------|
|----------0000000000000000--------3-0-0-5----------------------------|
|---------------------------------------------------------------------| X4
on your feet??

Chorus
|---------------------------------------------------------------------|
|---------------------------------------------------------------------|
|------3--------------------5-----------------------------------------|
|---------------------------------------------------------------------|
I said everybody up, everybody, everybody up???
|---------------------------------------------------------------------|
|---------------------------------------------------------------------|
|------------3--00?3-00--3 00---3-00------35--------------------------|
|---------------------------------------------------------------------| 

|---------------------------------------------------------------------|
|---------------------------------------------------------------------|
|------------3--00?3-00--3 00---3-00------35--------------------------|
|---------------------------------------------------------------------| X2

Backing Solo
|---------------------------------------------------------------------|
|---------------------------------------------------------------------|
|-----30-------000000000000000----5-3-0--------3-0-0-5----------------|
|---------------------------------------------------------------------| X6

Order
Intro 
Riff 1 
Riff 2
Chorus
Riff 2
Chorus
Backing Solo
Riff 1
Riff 2
Chorus
Riff 1

Video Clip de Everybody Up


ACORDES PARA GUITARRA

PIANO UKELELE


TOP 20: Las más tocadas de Saxon


Toca una Canción al Azar de Saxon

Acordes

Cerrar

10.11

x

74