Compartir


Cambiar Cifrado
Americano Latino

Cambiar Tonalidad
-1 +1
Imprimir FAQ
+A
-A

Texto

Desplazamiento

Transportador

Color de Fondo

Archivos

TONALIDAD, TAMAÑO, CIFRADO, SCROL.

Nos renovamos: Ahora puedes cambiar TODO haciendo clic en ICONO de la Guitarra () que aparece en la parte inferior de esta página.


LETRA CON ACORDES

standard tuning
Intro: (00:15)
|---------------------------------|
|---------------------------------|
|--5--5--5--5--3--3--3--3---------|
|---------------------------------|
Verse & Chorus : (00:29) We gonna shout !!! Let it rock !!!
|-----------------|-----------------|
|-----------------|-----------------|
|-----------------|-5-5-5-5-5-5-5-5-|
|-5-5-5-5-5-5-5-5-|-----------------|
Variation 1:       Variation 2:
|-----------------|-----5-7/9-7-5-----|
|-----5h7b5-------|---7-----------7---|
|---7-------7-5---|-5---------------5-|
|-5-------------5-|-------------------|
Bridge: (02:13)
|----------------------------------------------|
|----------------------------------------------|
|-7~~~-5~~~-3~~~-5~~~-3~~~-5~~~~-3~~~-33333333-|
|----------------------------------------------|
Solo Part: (02:30)
Same as verse !
Bridge 2: (03:14)
|---------------------------------|
|---------------------------------|
|-5-5-5-5-5-5-5-5-3-3-3-3-3-3-3-3-|
|---------------------------------|
then verse: (03:28)
the end: (03:56)
|--------|
|--------|
| ----5--|
|-5h7----|

Video Clip de Gonna Shout


ACORDES PARA GUITARRA

PIANO UKELELE


TOP 20: Las más tocadas de Saxon


Toca una Canción al Azar de Saxon

Acordes

Cerrar

11.49

x

59