Compartir


Cambiar Cifrado
Americano Latino

Cambiar Tonalidad
-1 +1
Imprimir FAQ
+A
-A

Texto

Desplazamiento

Transportador

Color de Fondo

Archivos

TONALIDAD, TAMAÑO, CIFRADO, SCROL.

Nos renovamos: Ahora puedes cambiar TODO haciendo clic en ICONO de la Guitarra () que aparece en la parte inferior de esta página.


LETRA CON ACORDES

e|--------------------------------------------------------------------------|
B|--------------------------------------------------------------------------|
G|--------------------------------------------------------------------------|
D|--7--9--------7--9--------7--9--------7--9----------5---------------------|
A|--------7-----------7-----------7-----------7-------3---------------------|
E|--------------------------------------------------------------------------|

     A           B             Riff 1'                           C
e|-----------|-------------|----------------------------------|-------------|
B|----0------|-----0-------|----------------------------------|-------------|
G|--0--------|---0---------|----------------------------------|-----4-------|
D|------2----|-------------|--7--9-------7--9--------7--9-----|--5--5----7--|
A|-----------|-------3-----|--------7----------7-----------7--|--3--3----5--|
E|-----------|-------------|----------------------------------|-------------|
    . . .        . . .

e|--------------------------------------------------------------------------|
B|--------------------------------------------------------------------------|
G|--------------------------------------------------------------------------|
D|-----------9-9-9-9-9--------5----------7----------------------------------|
A|-----------7-7-7-7-7stop----3--stop----5----------------------------------|
E|--(0-3-5)----------------------------------0-3-5-0------------------------|

Video Clip de Broken Heroes


ACORDES PARA GUITARRA

PIANO UKELELE
A
B
C


TOP 20: Las más tocadas de Saxon


Toca una Canción al Azar de Saxon

Acordes

Cerrar
A
B
C

13.48

x

175