Dragons Lair (Acordes)

Saxon

Full Álbum: Killing Ground (2001)
Subida por juner

Compartir


Cambiar Cifrado
Americano Latino

Cambiar Tonalidad
-1 +1
Imprimir FAQ
+A
-A

Texto

Desplazamiento

Transportador

Color de Fondo

Archivos

TONALIDAD, TAMAÑO, CIFRADO, SCROL.

Nos renovamos: Ahora puedes cambiar TODO haciendo clic en ICONO de la Guitarra () que aparece en la parte inferior de esta página.


LETRA CON ACORDES

----------------------------------------------------|
----------------------------------------------------|
----------------------------------------------------|
-9---------9---------9h10--9---------9---------9h7--|
-7---------7---------7-----7---------7---------7----|
---0-0-0-0---0-0-0-0---------0-0-0-0---0-0-0-0------|

--------------------------------------------------------------|
---------------------------7p5p4---5p4---4--------------------|
---------------------------------7-----7---7p5p4---5p4---4h5--|
-9---------9---------9h10------------------------7-----7------|
-7---------7---------7----------------------------------------|
---0-0-0-0---0-0-0-0------------------------------------------|

Main verse:
----------------------------------------------------|
----------------------------------------------------|
----------------------------------------------------|
-9---------9---------9h10--9---------9---------9h7--|
-7---------7---------7-----7---------7---------7----|
---0-0-0-0---0-0-0-0---------0-0-0-0---0-0-0-0------|

----------------------------------------------------|
----------------------------------------------------|
-----------------------------------------------5----|
-9---------9---------9h10--9---------9---------5----|
-7---------7---------7-----7---------7---------3----|
---0-0-0-0---0-0-0-0---------0-0-0-0---0-0-0-0-3----|

Chorus:
rhythm guitar:
---------------------------------------|
---------------------------------------|
---------------------------------------|
-7/9-5-----7/9-5------7/9-5-----7/9-5--|
-5/7-3-----5/7-3------5/7-3-----5/7-3--|
---------------------------------------|

lead guitar:
-12-10-------------12-10----v12---12-10--------------|
-------12-10-------------12-------------12-10--------|
-------------12~------------------------------v12\--|
-----------------------------------------------------|
-----------------------------------------------------|
-----------------------------------------------------|

---------------------------------------------|
---------------------------------------------|
---------------------------------------------|
-----5-2------5-2------5-------5-2------5-2--|
-0-2-5-2--0-2-5-2--0-2-5---0-2-5-2--0-2-5-2--|
-0-2------0-2------0-2-----0-2------0-2------|

end:
-------------------------------------|
--7p5p4---5p4---4--------------------|
--------7-----7---7p5p4---5p4---4h5--|
------------------------7-----7------|three times
-------------------------------------|
-------------------------------------|

second guitar (3rd time)
--10p9p7----9p7----7-------------------------|
---------10-----10---10p9p7---9p7---7--------|
----------------------------9-----9---7b--7b-|
---------------------------------------------|
---------------------------------------------|
---------------------------------------------|

Video Clip de Dragons Lair


ACORDES PARA GUITARRA

PIANO UKELELE


TOP 20: Las más tocadas de Saxon


Toca una Canción al Azar de Saxon

Acordes

Cerrar

13.23

x

186