Heavy Metal Thunder (Acordes)

Saxon

Full Álbum: Strong Arm of the Law (1980)
Subida por liz0409

Compartir


Cambiar Cifrado
Americano Latino

Cambiar Tonalidad
-1 +1
Imprimir FAQ
+A
-A

Texto

Desplazamiento

Transportador

Color de Fondo

Archivos

TONALIDAD, TAMAÑO, CIFRADO, SCROL.

Nos renovamos: Ahora puedes cambiar TODO haciendo clic en ICONO de la Guitarra () que aparece en la parte inferior de esta página.


LETRA CON ACORDES

|--------------------------------------------------------------------|
|--------------------------------------------------------------------|
|--------------------------------------------------------------------|Gtr 
|9---------9---------9---------9---------9---------9---------9-------| I
|7---------7---------7---------7---------7---------7---------7-------|
|--0-0-0-0---0-0-0-0---0-0-0-0---0-0-0-0---0-0-0-0---0-0-0-0---------|
|                                                                    |
|--------------------------------------------------------------------|
|--------------------------------------------------------------------|
|--------------------------------------------------------------------|Gtr 
|------------------------------9---------9---------9---------9-------| II
|------------------------------7---------7---------7---------7-------|
|--------------------------------0-0-0-0---0-0-0-0---0-0-0-0---------|

Riff B
|--------------------------------------------------------------------|
|-----------------------3--5------------------------3--5-------------|
|------4------4------4--2--4-------4------4------4--2--4-------------|Gtr
|-0000-2-0000-2-0000-2--0--2--0000-2-0000-2-0000-2--0--2-------------| I
|--------------------------------------------------------------------|
|--------------------------------------------------------------------|
|                                                                    |
|--------------------------------------------------------------------|
|--------------------------------------------------------------------|
|--------------------------------------------------------------------|Gtr 
|--------------------------------------------------------------------| II
|--------------------------------------------------------------------|
|-0-0-0-0-0-0-0-0-0-0-0-0--023--0-0-0-0-0-0-0-0-0-0-0-0--023---------|

Riff C
|----------------------------------------------|
|----------------------------------------------|
|-5--5---2---5--5---2---5--5---2---5--7--------|
|-5--5---2---5--5---2---5--5---2---5--7--------|
|-3--3---0---3--3---0---3--3---0---3--5--------|
|----------------------------------------------|

Riff D
|---------------------------------------|
|---------------------------------------|
|---------------------------------------|
|------------------2-222-2-222-2-222----|
|-3-2-0----5-3-2---0-000-0-000-0-000----|
|-------3--------3----------------------|

Riff E
|-----------------------|
|-----------------------|
|-----------------------|
|-----9-7-----9-7-------|
|--7777-5--7777-5-------|
|-----------------------|

END
|-----------------------------|
|-----------------------------|
|-----------------------------|
|-------------------2-2-------|
|-3-2-0----5-3-2----2-2-------|
|-------3--------3--0-0-------|

Video Clip de Heavy Metal Thunder


ACORDES PARA GUITARRA

PIANO UKELELE


TOP 20: Las más tocadas de Saxon


Toca una Canción al Azar de Saxon

Acordes

Cerrar

12.01

x

259