Hole In The Sky (Acordes)

Saxon

Full Álbum: Forever Free (1992)
Subida por Yhon

Compartir


Cambiar Cifrado
Americano Latino

Cambiar Tonalidad
-1 +1
Imprimir FAQ
+A
-A

Texto

Desplazamiento

Transportador

Color de Fondo

Archivos

TONALIDAD, TAMAÑO, CIFRADO, SCROL.

Nos renovamos: Ahora puedes cambiar TODO haciendo clic en ICONO de la Guitarra () que aparece en la parte inferior de esta página.


LETRA CON ACORDES

..  - palm mute          /  - slide up to
   - slide down to      ~  - vibrato
 h  - hammer on          b  - bend
 p  - pull off            Suffixes for bend
                          ph - pinch harmonic
                           f - full bend    h - half bend
*  - see comment           r - release      t - tap bend
X  - percussion mute       ~ - vibrato bend
@  - slight palm mute     () - ghost note, sustained note

Tune Gtr to E#

Riff A
|---------------------------------------------|
|---------------------------------------------|
|----------2---------5---------2---------5b---|
|----------2---------5---------2---------5b---|
|--0-0-0-0---0-0-0-0---0-0-0-0---0-0-0-0------|
|---------------------------------------------|

Riff B
|--------------------------------------------|
|--------------------------------------------|
|------------2-------------------2-----------|
|--------------4--0-4--------------4--0-3----|
|--------------------------------------------|
|--2222-2222-----------2222-2222-------------|

Riff C
|-------------------------------------------------------------------|
|-------------------------------------------------------------------|
|--4----4--2--2----4----4--2-------4----4--2--2---------------------|
|--4----4--2--2----4----4--2--5----4----4--2--2----------7-7-7-7----|
|--2----2--0--0----2----2--0--5----2----2--0--0----------5-5-5-5----|
|-----------------------------3------------------333-222------------|

Riff D
|-------------------------|
|-------------------------|
|-------------------------|
|-------------------------|
|-------------------------|
|--2222-2222-2222-2222----|

Video Clip de Hole In The Sky


ACORDES PARA GUITARRA

PIANO UKELELE


TOP 20: Las más tocadas de Saxon


Toca una Canción al Azar de Saxon

Acordes

Cerrar

23.15

x

188