Just Let Me Rock (Acordes)

Saxon

Full Álbum: Crusader (1984)
Subida por mabad

Compartir


Cambiar Cifrado
Americano Latino

Cambiar Tonalidad
-1 +1
Imprimir FAQ
+A
-A

Texto

Desplazamiento

Transportador

Color de Fondo

Archivos

TONALIDAD, TAMAÑO, CIFRADO, SCROL.

Nos renovamos: Ahora puedes cambiar TODO haciendo clic en ICONO de la Guitarra () que aparece en la parte inferior de esta página.


LETRA CON ACORDES

INTRO / CHORUS

||-----------------------------------------|
||-----------------------------------------|
||-------------------------------3--5--3---|
||-5--5-5----5--5-5-----5--5-5-------------|

VERSE

||*--------------*-----------------------------|
||*--------------*-----------------------------|
||*--------------*---------3-5-5-3-------------|
||*---5-5--5-5---*----(5)----------5-----------|

During singing part   - In short pause in the same verse
a lot of times        - 1 time

SOLO

Only drum - then start a part like verse but without variation (E5-A3553-E5)

LAST CHORUS (after some normal chorus) till the end

||----------------------------------|
||----------------------------------|
||-3--5--3--------------------------|
||----------5--5-5--1-3-5-5--1-3-5-5|

Video Clip de Just Let Me Rock


ACORDES PARA GUITARRA

PIANO UKELELE


TOP 20: Las más tocadas de Saxon


Toca una Canción al Azar de Saxon

Acordes

Cerrar

14.00

x

76