Compartir


Cambiar Cifrado
Americano Latino

Cambiar Tonalidad
-1 +1
Imprimir FAQ
+A
-A

Texto

Desplazamiento

Transportador

Color de Fondo

Archivos

TONALIDAD, TAMAÑO, CIFRADO, SCROL.

Nos renovamos: Ahora puedes cambiar TODO haciendo clic en ICONO de la Guitarra () que aparece en la parte inferior de esta página.


LETRA CON ACORDES

-----------------------------------------------|
-----------------------------------------------|
-----------------------------------------------|
--------------------------------------------2--|
-4-4-4-4--4-4-4-4-4--5-5--4-4-4-4--4-4-4-4--2--|
-2-2-2-2--2-2-2-2-2--3-3--2-2-2-2--2-2-2-2--0--|
. . . . . . . . . . . . . . . . . . . p.m.

Main verse: (A,A,B,A)
a)
---------------------------------------|
---------------------------------------|
---------------------------------------|
----------------7-----------------7/9--|
----------------5-----------------5/9--|
-0-0-0-0--0--0--5--0-0-0-0--0--0--5/7--|
. . . . . . . . . . . . p.m.

b)
---------------------------------------|
---------------------------------------|
---------------------------------------|
----------------7-----------------7/9--|
----------------5-----------------5/9--|
-8-8-8-8--8--8--5--8-8-8-8--8--8--5/7--|
. . . . . . . . . . . . p.m.


Chorus:
-------------------------------|
-------------------------------|
-5----2-----------5----7----9--|
-5----2----2------5----7----9--|
-3----0----2------3----5----7--|
-----------0-------------------|
^a) ^b)

a) 1/2
---------^----------7----|
----7-8-b8r--7-8-10------|
--9-------------------9--|
-------------------------|
-------------------------|
-------------------------|

b)
--b15-14-12-v12---|
------------------|
------------------|
------------------|
------------------|
------------------|

Bridge after Chorus:
-----------------------------------------------|
-----------------------------------------------|
-----------------------------------------------|
--------------------------------------------2--|
-2-2-2-2--2-2-2-2-2--3-3--2-2-2-2--2-2-2-2--0--|
-0-0-0-0--0-0-0-0-0--1-1--0-0-0-0--0-0-0-0--0--|
. . . . . . . . . . . . . . . . . . . p.m.


Solo backing: (A,A,B,A)

a)
---------------------------------------|
---------------------------------------|
----------------5-----------------5/7--|
----------------3-----------------3/5--|
----------------3-----------------3/5--|
-3-3-3-3--3--3-----3-3-3-3--3--3-------|
. . . . . . . . . . . . p.m.

b)
---------------------------------------|
---------------------------------------|
----------------5-----------------5/7--|
----------------3-----------------3/5--|
-6-6-6-6--6--6--3--6-6-6-6--6--6--3/5--|
---------------------------------------|
. . . . . . . . . . . . p.m.

Clean part after Bass solo
-----0-----0-----0-----|
-----0-----0-----0-----|
-----0-----0-----0-----|
-----5-----7-----2-----|
-----3-----5-----2-----|
-----3-----5-----0-----|

after 2 times second guitar joins:
---------------------------------------------------|
---------------------------------------------------|
---------------------------------------------------|
---------------------------------------------------|
--3-3-3-3-3-3-3-3-3-3-3-3/5-5-5-5-5-5-5-5-5-5-5-5/-|
---------------------------------------------------|
. . . . . . . . . . . . . . . . . . . . . . . . p.m.
---------------------------------------------------|
---------------------------------------------------|
---------------------------------------------------|
---------------------------------------------------|
-/7-7-7-7-7-7-7-7-7-7-7-7-7-7-7-7-7-7-7-7-7-7-7-7--|
---------------------------------------------------|
. . . . . . . . . . . . . . . . . . . . . . . . p.m.

after 4th time 2nd guitar plays:
---------------|
---------------|
--9\--9\--9--|
--9\--9\--9--|
--7\--7\--7--|
---------------|
End:
--------------------------|
--------------------------|
-----------5--7--9-11-12--|
--5--7--9--5--7--9-11-12--|
--5--7--9--3--5--7--9-10--|
--3--5--7-----------------|

------------------------------------------------------------------------|
------------------------------------------------------------------------|
-12-12-12-12--12-12-12-12-12--13-13--12-12-12-12--12-12-12-12-12--10----|
-12-12-12-12--12-12-12-12-12--13-13--12-12-12-12--12-12-12-12-12--10----|
-10-10-10-10--10-10-10-10-10--11-11--10-10-10-10--10-10-10-10-10---8----|
------------------------------------------------------------------------|

---------|
---------|
-\-9----|
-\-9----|
-\-7----|
---0-----|


Tune all guitars down 1/2 step

rhythm guitar (clean):
-----------------------------------------------------|
-----------------------------------------------------|
-----------------------------------------------------|
-----9--7---7--------9--7------9--7---7--------9--7--|
---------------7--9----------------------7--9--------|
--0-------------------------0------------------------|

end: 1st t. 2nd t. 3rd t. 4th t.
-------------------------------------------------|---------|------|------|---------|
-------------------------------------------------|---------|------|------|---------|
-------------------------------------------------|---------|------|------|---------|
-----9--7---7--------9--7------9--7---7--------9-|-9-7-----|-7--9-|-9----|-9-7-----|
---------------7--9----------------------7--9----|-----9-7-|------|------|-----9-7-|
--8-------------------------8--------------------|---------|------|------|---------|

after 4th time:
------------------------------------------------------------|
------------------------------------------------------------|
------------------------------------------------------------|
-----9--7---7--------9--7------9--7---7--------9--7--9------|
---------------7--9----------------------7--9---------------|
--0-------------------------0---------------------------0---|

lead guitar:

1st time:
(fade in)

--f12~~~~---|
------------|
------------|
------------|
------------|
------------|
f=flageotton

2nd time:
(fade in)

-----------f12~~~~~~----|
------------------------|
--9~~~------------------|
------------------------|
------------------------|
------------------------|

3rd time:
(fade in)

~~~~~~~~-----------------|
-------------------------|
-----------9~~~~---------|
---------------9~~-------|
------------------7~~~~--|
-------------------------|

4th time:

--16-14--14-------15-14----16-14--14-------15-14--|
------------15-17--------------------15-17--------|
--------------------------------------------------|
--------------------------------------------------|
--------------------------------------------------|
--------------------------------------------------|

5th time:

--16-14--14-------15-14----16-14--14-------15-14--12~~--|
------------15-17--------------------15-17--------------|
--------------------------------------------------------|
--------------------------------------------------------|
--------------------------------------------------------|
--------------------------------------------------------|

third guitar:
(3th-5th time)

--------------------------|
----12-10--10------12-10--|
--------------9-11--------|
--------------------------|
--------------------------|
--------------------------|

Video Clip de Killing Ground


ACORDES PARA GUITARRA

PIANO UKELELE
A
B


TOP 20: Las más tocadas de Saxon


Toca una Canción al Azar de Saxon

Acordes

Cerrar
A
B

12.52

x

231