Never Surrender (Acordes)

Saxon

Full Álbum: Denim and Leather (1981)
Subida por Ramos

Compartir


Cambiar Cifrado
Americano Latino

Cambiar Tonalidad
-1 +1
Imprimir FAQ
+A
-A

Texto

Desplazamiento

Transportador

Color de Fondo

Archivos

TONALIDAD, TAMAÑO, CIFRADO, SCROL.

Nos renovamos: Ahora puedes cambiar TODO haciendo clic en ICONO de la Guitarra () que aparece en la parte inferior de esta página.


LETRA CON ACORDES

|--------------------------------------------------------------------|
|--------------------------------------------------------------------|
|--------------------------------------------------------------------|
|-----7------5------4------5-4--------7------5------4------5ph-------
|-0-0----0-0----0-0----0-0-----5--0-0----0-0----0-0----0-0-----------|
|--------------------------------------------------------------------|

Riff B                                                                    
|--------------------------------------------------------------------|
|--------------------------------------------------------------------|
|-----7------5------4------5-4--------7------5------4------5---------|
|-----7------5------4------5-4--------7------5------4------5---------
|-0-0----0-0----0-0----0-0-----5--0-0----0-0----0-0----0-0-----------|
|--------------------------------------------------------------------|

Riff C
|--------------------------------------|
|--------------------------------------|
|-2-------4----2----------4------------|
|-2---2---4----2---2--2---4------------
|-0---2---2----0---2--2---2--0-2-3-----|
|-----0------------0--0----------------|

Riff D                                                                    
|--------------------------------|
|--------------------------------|
|-5-------7----5----------7------
|-5---5---7----5---5--5---7------
|-3---5---5----3---5--5---5------|
|-----3------------3--3----------|

Video Clip de Never Surrender


ACORDES PARA GUITARRA

PIANO UKELELE


TOP 20: Las más tocadas de Saxon


Toca una Canción al Azar de Saxon

Acordes

Cerrar

09.11

x

196