Princess Of The Night (Acordes)

Saxon

Full Álbum: Denim and Leather (1981)
Subida por cantalicio

Compartir


Cambiar Cifrado
Americano Latino

Cambiar Tonalidad
-1 +1
Imprimir FAQ
+A
-A

Texto

Desplazamiento

Transportador

Color de Fondo

Archivos

TONALIDAD, TAMAÑO, CIFRADO, SCROL.

Nos renovamos: Ahora puedes cambiar TODO haciendo clic en ICONO de la Guitarra () que aparece en la parte inferior de esta página.


LETRA CON ACORDES

A primeira cifra tava totalmente errada... só não coloquei os solos porque estou trabalhando nele...
a música é fácil e os solos qualquer um com o ouvido bom tira... Valeu! 

Intro e base da música:   =arrastar

E|------------------------------------------|--------------------------------|
B|------------------------------------------|--------------------------------|
G|------------------------------------------|--------------------------------|
D|--------8-8-x-8-8-x-8-8-8-8---1011-1011-|---6-6-x-6-6-x-6-6-6-6---10-11--|
A|--------6-6-x-6-6-x-6-6-6-6----89---89--|---4-4-x-4-4-x-4-4-4-4---8--9---|
E|------------------------------------------|--------------------------------|

durante o refrão?                       ||(antes do solo)...         |
                  3x                    ||                           |
E|--------|----------------|------------||---------------------------|
B|--------|----------------|------------||---------------------------|
G|--------|----------------|------------||---------------------------|
D|--------|-3--4--6----6---|--3-4-------||---------------------------|
A|--4-3-2-|-1--2--4----4---|--1-2-------||--6--------6-6-6-6-6-------|
E|--------|----------------|------------||--4--------4-4-4-4-4-------|
   


Lyrics

She used to be an iron horse
Twenty years ago
Used to bring the mail to me
Through the ice and snow
I sat alone and watched her
Steaming through the night
Nineteen tons of thunder
Riding up the sky

                                      
She was the Princess of the night
You saw the writing on the wall
She was the Princess of the night
I take a ride across the sky

Speed as much as lightning
Engine working hard
Furnace on the footplate
Shining in the night
Iron striking metal
The sound of racing steel
It's all I ever wanna hear
It's music to my ears

She was the?.

[Solo]

She was the?.

Nineteen tons of thunder
Lighting up the sky
Steaming right out pistons
See the wheels flash by
Hear the whistle blowing
Stickin' down the track
If I'll ever have my way
I bring the Princess back one day

She was the?.

Video Clip de Princess Of The Night


ACORDES PARA GUITARRA

PIANO UKELELE


TOP 20: Las más tocadas de Saxon


Toca una Canción al Azar de Saxon

Acordes

Cerrar

10.20

x

258