Compartir


Cambiar Cifrado
Americano Latino

Cambiar Tonalidad
-1 +1
Imprimir FAQ
+A
-A

Texto

Desplazamiento

Transportador

Color de Fondo

Archivos

TONALIDAD, TAMAÑO, CIFRADO, SCROL.

Nos renovamos: Ahora puedes cambiar TODO haciendo clic en ICONO de la Guitarra () que aparece en la parte inferior de esta página.


LETRA CON ACORDES


Riff A
|----------------------------------------------|
|----------------------------------------------|
|---------------------7------------------------|Gtr 
|--2--2-5-2-5-2--5-2--7--2--2-5-2-5------------| I
|--0--0-3-0-3-0--3-0--5--0--0-3-0-3------------|
|----------------------------------------------|
|                                              |
|----------------------------------------------|
|----------------------------------------------|
|----------------------------------------------|Gtr 
|------------------------7---------4-5-7-------| II
|------------------------7---------4-5-7-------|
|------------------------5---------2-3-5-------|

Riff B  
|----------------------------------------------------|
|----------------------------------------------------|
|---------------------7------------------------------|
|--2--2-5-2-5-2--5-2--7--2--2-5-2-5--5-2--5-7--------
|--0--0-3-0-3-0--3-0--5--0--0-3-0-3--3-0--5-7--------|
|-----------------------------------------3-5--------|

Riff C
|-------------------------------------|
|-------------------------------------|
|--7-7--5-5--2---------2--------------|
|--7-7--5-5--2--2-2-4--2--2-2-4-------
|--5-5--3-3--0--0-0-2--0--0-0-2-------|
|-------------------------------------|

Riff D
|------------------------------|
|------------------------------|
|--7-7--5-5--------------------|
|--7-7--5-5--9-9-9-9-9-9-------|
|--5-5--3-3--7-7-7-7-7-7-------|
|------------------------------|

Riff E
|----------------|
|----------------|
|----------------|
|--7/5--2-5-7----|
|--5/3--0-3-5----|
|----------------|

Riff F
|--------------------------------------------------------|
|--------------------------------------------------------|
|--------------------------------------------------------|Gtr 
|--------------------------------------------------------| I
|--5555-5555-5555-5555-5555-5555-5555-5555-5555-5555-----|
|--------------------------------------------------------|
|                                                        |
|--------------------------------------------------------|
|--------------------------------------------------------|
|--10---7----10---7----7-----7----7----7----7------------|Gtr
|--10---7----10---7----7-----7----7----7----7------------| II
|--8----5----8----5----5-----5----5----5----5------------|
|--------------------------------------------------------|

Video Clip de Rough And Ready


ACORDES PARA GUITARRA

PIANO UKELELE
A
B
C
D
E
F


TOP 20: Las más tocadas de Saxon


Toca una Canción al Azar de Saxon

Acordes

Cerrar
A
B
C
D
E
F

22.17

x

188