Stand Up And Be Counted (Acordes)

Saxon

Full Álbum: Wheels of Steel (1980)
Subida por Luisfernandodaza

Compartir


Cambiar Cifrado
Americano Latino

Cambiar Tonalidad
-1 +1
Imprimir FAQ
+A
-A

Texto

Desplazamiento

Transportador

Color de Fondo

Archivos

TONALIDAD, TAMAÑO, CIFRADO, SCROL.

Nos renovamos: Ahora puedes cambiar TODO haciendo clic en ICONO de la Guitarra () que aparece en la parte inferior de esta página.


LETRA CON ACORDES

Riff A
|--------------------------------------------------------|
|--------------------------------------------------------|
|----5-----5-7---5---5-7------5-----5-7---7---5--2-------
|----5-----5-7---5---5-7------5-----5-7---7---5--2-------
|0-0---0-0-----0---0------0-0---0-0-----0---0----0-------|
|--------------------------------------------------------|

Riff B                                                                    
|--------------------------------------------------------------------|
|--------------------------------------------------------------------|
|5--(5)----7--7--5-----5--(5)----7--7--5------------5---7---5---2----
|5--(5)----7--7--5-----5--(5)----7--7--5--END WITH--5---7---5---2----
|3--(3)----5--5--3-----3--(3)----5--5--3------------3---5---3---0----|
|--------------------------------------------------------------------|

Riff C
|---------------------------------------------|
|---------------------------------------------|
|-10-9-------10-9--------10-9----12b----------|Gtr
|------10-9-------12-10-------10--------------| I
|---------------------------------------------|
|---------------------------------------------|
|                                             |
|---------------------------------------------|
|--9-8--------9-8---------9-8-----12b---------|
|-------8-7--------9-7--------10--------------|Gtr 
|---------------------------------------------| II
|---------------------------------------------|
|---------------------------------------------|

Riff D
|-----------------------------------|
|-----------------------------------|
|7---------------5-------7----------|
|7---7-----------5-------7----------|
|5---7---5-4-5---3-------5----------|
|----5---3-2-3----------------------|

Video Clip de Stand Up And Be Counted


ACORDES PARA GUITARRA

PIANO UKELELE


TOP 20: Las más tocadas de Saxon


Toca una Canción al Azar de Saxon

Acordes

Cerrar

12.35

x

176