Street Fighting Gang (Acordes)

Saxon

Full Álbum: Wheels of Steel (1980)
Subida por Lolilolila

Compartir


Cambiar Cifrado
Americano Latino

Cambiar Tonalidad
-1 +1
Imprimir FAQ
+A
-A

Texto

Desplazamiento

Transportador

Color de Fondo

Archivos

TONALIDAD, TAMAÑO, CIFRADO, SCROL.

Nos renovamos: Ahora puedes cambiar TODO haciendo clic en ICONO de la Guitarra () que aparece en la parte inferior de esta página.


LETRA CON ACORDES

Riff A
|------------------------------------------------|
|------------------------------------------------|
|--2--5-5-5---5---5---2--5-5-5---5---5---2-------|
|--2--5-5-5---5---5---2--5-5-5---5---5---2-------
|--0--------0---0---0-0--------0---0---0-0-------|
|------------------------------------------------|

Riff B
|-----------------------------------|
|-----------------------------------|
|-----2-----4-----5-----7-----------|
|-----2-----4-----5-----7-----------
|--0-----0-----0-----0--------------|
|-----------------------------------|

Riff C
|-------------------------------------------------------------|
|-------------------------------------------------------------|
|-----------------------------------------7-------------------|
|---------------9-7-9-7-9-7---------------7----5-4-2----------
|------3-5-7-5--7-5-7-5-7-5------3-5-7-5--5----3-2-0----------|
|--3-5-----------------------3-5------------------------------|

Riff D
|--------------------------------|
|--------------------------------|
|--------------------------------|
|--7--9----5-7-5-7-5-7-5-7-------
|--5--7----0-0-0-0-0-0-0-0-------|
|--------------------------------|

Riff E.1
|--12-14-14-12-14-14-12-14-14-12-14-14-14------------|
|----------------------------------------------------|
|----------------------------------------------------|
|----------------------------------------------------|
|----------------------------------------------------|
|----------------------------------------------------|

Riff E.2
|--12-15-15-12-15-15-12-15-15-12-15-15-15------------|
|----------------------------------------------------|
|----------------------------------------------------|
|----------------------------------------------------|
|----------------------------------------------------|
|----------------------------------------------------|

Riff F
|---------------------|
|---------------------|
|---------------------|
|--5-4----------------|
|------7-5-3-2--------|
|---------------------|

CODA
|--------------------|
|--------------------|
|--3--------2--------|
|--3--------2--------|
|--1--------0--------|
|--------------------|

Video Clip de Street Fighting Gang


ACORDES PARA GUITARRA

PIANO UKELELE
A
B
C
D
F


TOP 20: Las más tocadas de Saxon


Toca una Canción al Azar de Saxon

Acordes

Cerrar
A
B
C
D
F

11.09

x

196