Compartir


Cambiar Cifrado
Americano Latino

Cambiar Tonalidad
-1 +1
Imprimir FAQ
+A
-A

Texto

Desplazamiento

Transportador

Color de Fondo

Archivos

TONALIDAD, TAMAÑO, CIFRADO, SCROL.

Nos renovamos: Ahora puedes cambiar TODO haciendo clic en ICONO de la Guitarra () que aparece en la parte inferior de esta página.


LETRA CON ACORDES

..  - palm mute          /  - slide up to
   - slide down to      ~  - vibrato
 h  - hammer on          b  - bend
 p  - pull off            Suffixes for bend
                          ph - pinch harmonic
                           f - full bend    h - half bend
*  - see comment           r - release      t - tap bend
X  - percussion mute       ~ - vibrato bend
@  - slight palm mute     () - ghost note, sustained note

Tune Gtr to E<

Riff A.1
|------------------------------------------|
|------------------------------------------|
|--------------------------------------7---|
|--------------------------------------7---|
|--0-0-0-3p0-0-0-0-5p0-0-0-0-3p0-0-0-0-5---|
|------------------------------------------|

Riff A.2
|------------------------------------------|
|------------------------------------------|
|------------------------------------------|
|------------------------------------------|
|--0-0-0-3p0-0-0-0-5p0-0-0-0-3p0-0-0-0-5ph-|
|------------------------------------------|

Riff B
|---------------|
|---------------|
|---------------|
|--10-9--7--5---|
|--8--7--5--3---|
|---------------|

Riff C.1
|---------------------------------------------|
|---------------------------------------------|
|--9-------------------9----------------------|
|--9-------------------9----------------------|
|--7-7-7-7-7--7-7-7-7--7-7-7-7-7--7-7-7-7-----|
|---------------------------------------------|

Riff C.2
|---------------------------------------------|
|---------------------------------------------|
|--7-------------------7----------------------|
|--7-------------------7----------------------|
|--5-5-5-5-5--5-5-5-5--5-5-5-5-5--5-5-5-5-----|
|---------------------------------------------|

Riff D.1
|------------------------------|
|------------------------------|
|--4------------4--------------|
|--4------------4--------------|
|--2-2-2-2-2-2--2-2-2-2-2-2----|
|------------------------------|

Riff D.2
|------------------------------|
|------------------------------|
|--5------------5--------------|
|--5------------5--------------|
|--3-3-3-3-3-3--3-3-3-3-3-3----|
|------------------------------|

Riff D.3
|------------------------------|
|------------------------------|
|--7------------7--------------|
|--7------------7--------------|
|--5-5-5-5-5-5--5-5-5-5-5-5----|
|------------------------------|

Riff E
|--0-2-3-0-2-3-5-3-2-0-2-3--0-2-3-0-2-3-5-3-2-3-----|
|---------------------------------------------------|
|---------------------------------------------------|
|---------------------------------------------------|
|---------------------------------------------------|
|---------------------------------------------------|
|                                                   |
|---------------------------------------------------|
|---------------------------------------------------|
|--9-----5----7----9------9----5----7----9----------|
|--9-----5----7----9------9----5----7----9----------|
|--7-----3----5----7------7----3----5----7----------|
|---------------------------------------------------|

Riff F
|----------------------------------------------|
|----------------------------------------------|
|--9-------------------9-9---------------------|
|--9-------------------9-9---------------------|
|--7-------------------7-7---------------------|
|-----0-0-0-0-0-0-0-0-------0-0-0-0-0-0-0-0----|

End
|------------------------------------|
|------------------------------------|
|--5-4-2----5-4-2----5-4-2----2-2----|
|--3-2-0-5--3-2-0-5--3-2-0-5--2-2----|
|--------3--------3--------3--0-0----|
|------------------------------------|

Video Clip de Warrior


ACORDES PARA GUITARRA

PIANO UKELELE


TOP 20: Las más tocadas de Saxon


Toca una Canción al Azar de Saxon

Acordes

Cerrar

14.06

x

256