La llave del Mándala
Invisible
Acordes

Subida por jmrs95


Más Versiones
Ver. 2 Ver. 3

Cambiar Cifrado
Americano Latino

Cambiar Tonalidad
-1 +1

Partir Pantalla Imprimir FAQ

+A
-A
Riff 1
Vamos a ver
Riff 1
la llave del Mandala
Riff 1
vamos a ver
Riff 1 Riff 2
la llave del Mandala.

Vamos a verla
antes de que vuelva
vamos a verla antes
de que vuelva.

A
Tanta fe tengo puesta aquí
B
con tu sonrisa
F G A
que creo ver el aire del tiempo
A
y el agua del sol, quizás
B
mientras te guíes
F G A
dará aquellos sonidos que faltan.

FMaj7/A
Todo Mandala está en el adentro
todo Mandala está en el afuera
vamos a ver la llave del tiempo.

Salgamos todos, todos por adentro
salgamos todos, puertas que se abren.

La llave del Mandala es
la nave del tiempo
y nuestros misterios
ya se saben
la llave del Mandala es
la verdadera
primitiva forma del tiempo.

FMaj7/A B5/11
Todo Mandala está en el adentro
FMaaj7/A B5/11
todo Mandala está en el adentro

todo Mandala está en el afuera

todo Mandala está en el afuera.

Riff 1

e----------------------7-7-5---
b----------------------7-7-5---
g----------------------7-7-5---
d--2-2-2-2-2-2-2-2-2---7-7-5---
a--0-0-0-0-0-0-0-0-0---7-7-5---
e------------------------------

Riff 2

e----^---------------^-------------^-7-6-5-3--^^---5---
b------------------------------------7-6-5-3-------5---
g------------------------------------7-6-5-3-------6---
d------------------------------------7-6-5-3-------7---
a--0---0-0-0-0-0-0-0---0-0-0-0-0-0---7-6-5-3-------0---
e------------------------------------------------------




e---5----^--0---
b---5-------0---
g---5-------4---
d---7-------4---
a---8-------2---
e---5-----------


ACORDES PARA GUITARRA

PIANO UKELELE
A
B
F
G
B11


COMENTARIOS

Aún no hay comentarios,

¡escribe el primero!

Escribe una pregunta, duda o comentario sobre esta canción, te responderemos a la brevedad.

Las más tocadas de Invisible

Toca una Canción al Azar de Invisible
A
B
F
G
B11