Ruido de magia
Invisible
Acordes

Subida por cac041554
Álbum: El jardín de los presentes ( 1976)


Más Versiones
Ver. 2 Ver. 3 Ver. 4

Cambiar Cifrado
Americano Latino

Cambiar Tonalidad
-1 +1

Partir Pantalla Imprimir FAQ

+A
-A
Intro:

e-----------------------------------------/----/
b-----------------------------------------/----/
g-----------------------------------------/----/
d--11--9-7--5-3---2-3-2-0--*--0-2-3-5-7-9-/-11-/ X2
a-----------------------------------------/----/
E-----------------------------------------/----/


A C D D
e----5-5----------------------5--------5------/
b----5----5--------5-----7-7-7----7-7-7--7----/
g----6------6----5-5-----7-7-7----7-7-7--7----/
d----7---------5-5-5---7-7-7-7--7-7-7-7--7----/
a----7---------3---3---5-5-7-5--5-5-7-5--5----/
E----5----------------------------------------/

Te ví como mecida en algo


A C D D
e----5-5-----------------------5--------5-----/
b----5----5--------5-----7-7-7----7-7-7--7----/
g----6------6----5-5-----7-7-7----7-7-7--7----/
d----7---------5-5-5---7-7-7-7--7-7-7-7--7----/
a----7---------3---3---5-5-7-5--5-5-7-5--5----/
E----5----------------------------------------/

cubierta de racimos más que blancos


F E G D
e-----------------------------3---/-----5---------/
b--10--10-----9-9-------------3---/---7-7-7-------/
g--10--10-----9-9-------------4---/---7-7-7---X3--/
d--10--10-----9-9-------------5---/---7-7-7-------/
a--10--8------9-7-------------5---/-5-5-7-5-------/
E-----------------------------3---/---------------/

tu fuiste la querida, en la tormenta. Oh oh



A C D D
e----5-5----------------------5--------5------/
b----5----5--------5-----7-7-7----7-7-7--7----/
g----6------6----5-5-----7-7-7----7-7-7--7----/
d----7---------5-5-5---7-7-7-7--7-7-7-7--7----/
a----7---------3---3---5-5-7-5--5-5-7-5--5----/
E----5----------------------------------------/

No llega ya mi voz a tu alma


A C D D
e----5-5----------------------5--------5------/
b----5----5--------5-----7-7-7----7-7-7--7----/
g----6------6----5-5-----7-7-7----7-7-7--7----/
d----7---------5-5-5---7-7-7-7--7-7-7-7--7----/
a----7---------3---3---5-5-7-5--5-5-7-5--5----/
E----5----------------------------------------/

las ostras se han servido de tu nácar


F E G D
e-----------------------------3---/-----5----/
b--10--10-----9-9-------------3---/---7-7-7--/
g--10--10-----9-9-------------4---/---7-7-7--/
d--10--10-----9-9-------------5---/---7-7-7--/
a--8---8------7-7-------------5---/-5-5-7-5--/
E-----------------------------3---/----------/

mientras oigo tu ruido, ruido de magia.


C B
e-----------/--------/
b----5-5-5--/-4-4-4--/
g----5-5-5--/-4-4-4--/ X4
d----5-5-5--/-4-4-4--/
a----3-5-3--/-2-4-2--/
E-----------/--------/

||Solo||

Riff:
e---------------------------------------/--------/
b---------------------------------------/--------/
g---------------------------------------/--------/
d---------------------------------------/--4-4-4-/
a--------(0)-3-(0)-5-(0)-7--5-3-0-------/--2-4-2-/
E---5--7--------------------------7-5---/--------/

+ otra guitarra haciendo lo mismo, octavado.


e----5-5--------------------------------------/
b----5-------------5-----7-7-7----7-7-7--7----/
g----6-----------5-5-----7-7-7----7-7-7--7----/
d----7---------5-5-5---7-7-7-7--7-7-7-7--7----/
a----7---------3---3---5-5-7-5--5-5-7-5--5----/
E----5----------------------------------------/

e-----------------------------------------/----/
b-----------------------------------------/----/
g-----------------------------------------/----/
d--11--9-7--5-3---2-3-2-0-----0-2-3-5-7-9-/-11-/ X2
a-----------------------------------------/----/
E-----------------------------------------/----/


A C D D
e----5-5--------------------------------------/
b----5----5--------5-----7-7-7-7--7-7-7--7----/
g----6------6----5-5-----7-7-7----7-7-7--7----/
d----7---------5-5-5---7-7-7-7--7-7-7-7--7----/
a----7---------3---3---5-5-7-5--5-5-7-5--5----/
E----5----------------------------------------/

Recuerdo haberte amado, así dormida


A C D D
e----5-5-----------------------5--------5-----/
b----5----5--------5-----7-7-7----7-7-7--7----/
g----6------6----5-5-----7-7-7----7-7-7--7----/
d----7---------5-5-5---7-7-7-7--7-7-7-7--7----/
a----7---------3---3---5-5-7-5--5-5-7-5--5----/
E----5----------------------------------------/

en aquellos que fueron débiles sueños


F E G D
e-----------------------------3---/-----5----/
b--10--10-----9-9-------------3---/---7-7-7--/
g--10--10-----9-9-------------4---/---7-7-7--/
d--10--10-----9-9-------------5---/---7-7-7--/
a--8---8------7-7-------------5---/-5-5-7-5--/
E-----------------------------3---/----------/

crepúsculos del fuego sobre tu noche


A C D D
e----5-5-----------------------5--------5-----/
b----5----5--------5-----7-7-7----7-7-7--7----/
g----6------6----5-5-----7-7-7----7-7-7--7----/
d----7---------5-5-5---7-7-7-7--7-7-7-7--7----/
a----7---------3---3---5-5-7-5--5-5-7-5--5----/
E----5----------------------------------------/

y así palpita el Dios que fuiste


A C D D
e----5-5-----------------------5--------5-----/
b----5----5--------5-----7-7-7----7-7-7--7----/
g----6------6----5-5-----7-7-7----7-7-7--7----/
d----7---------5-5-5---7-7-7-7--7-7-7-7--7----/
a----7---------3---3---5-5-7-5--5-5-7-5--5----/
E----5----------------------------------------/

bailando entre las piernas gigantes


F E G D
e-----------------------------3---/-----5----/
b--10--10-----9-9-------------3---/---7-7-7--/
g--10--10-----9-9-------------4---/---7-7-7--/
d--10--10-----9-9-------------5---/---7-7-7--/
a--8---8------7-7-------------5---/-5-5-7-5--/
E-----------------------------3---/----------/

verás que nuestra danza está quebrada.

C B
e-----------/--------/
b----5-5-5--/-4-4-4--/
g----5-5-5--/-4-4-4--/ X4
d----5-5-5--/-4-4-4--/
a----3-5-3--/-2-4-2--/
E-----------/--------/


Termina en fade-out...



Cualquier duda a [email protected]


ACORDES PARA GUITARRA

PIANO UKELELE
A
C
D
F
E
G
B


COMENTARIOS

Aún no hay comentarios,

¡escribe el primero!

Escribe una pregunta, duda o comentario sobre esta canción, te responderemos a la brevedad.

Las más tocadas de Invisible

Toca una Canción al Azar de Invisible
A
C
D
F
E
G
B