Chasing The Rapture (Acordes)

10 Years

Full Álbum: Feeding the Wolves (2010)
Subida por Walter

Compartir


Imprimir FAQ
+A
-A

Texto

Desplazamiento

Transportador

Color de Fondo

Archivos

-A
+A
Intro:

(guitarra 1)
E|-------------------------------------------------------------------------|
B|----11----11-11----11-11----11-11-------10----10-10----------------------|
G|-12----12-------12-------12-------12-10----10-------10----10----10-10----|
D|-------------------------------------------------------12----12-------12-|
A|-------------------------------------------------------------------------|
D|-------------------------------------------------------------------------|

E|-------------------------------------------------------------------------------|
B|----11----11-11----11-11----11-11-------10----10-10----------------------------|
G|-12----12-------12-------12-------12-10----10-------10----10----10----10----10-|
D|-------------------------------------------------------12----12----10----10----|
A|-------------------------------------------------------------------------------|
D|-------------------------------------------------------------------------------|

Verso:

(guitarra 1)
E|-------------------------------------------------------------------------|
B|----11----11-11----11-11----11-11-------10----10-10----------------------|
G|-12----12-------12-------12-------12-10----10-------10----10----10-10----|
D|-------------------------------------------------------12----12-------12-|
A|-------------------------------------------------------------------------|
D|-------------------------------------------------------------------------|

E|-------------------------------------------------------------------------------|
B|----11----11-11----11-11----11-11-------10----10-10----------------------------|
G|-12----12-------12-------12-------12-10----10-------10----10----10----10----10-|
D|-------------------------------------------------------12----12----10----10----|
A|-------------------------------------------------------------------------------|
D|-------------------------------------------------------------------------------|

(guitarra 2)
E|-----------------------------------------------------------------------|
B|-----------------------------------------------------------------------|
G|-----------------------------------------------------------------------|
D|-----------------------------------------------------------------------|   (2x)
A|-----------------------------------------------------------------------|
D|-5555-555-555-55-8888-888-333-33-5555-555-555-55-8888-888-101010101010-|
   .... ... ... .. .... ... ... .. .... ... ... .. .... ... . . . . . .

Refrão:
E|-----------------------------------------------------------------------------------------|
B|-----------------------------------------------------------------------------------------|
G|-----------------------------------------------------------------------------------------|
D|-5-5-5-5-5-5-5-5-5-5-5-5-5-5-5-5-8-3-8-3-3-3-5-5-5-5-5-5-5-5-5-5-5-5-5-5-5-5-8-3-0-3-5-5-|
A|-5-5-5-5-5-5-5-5-5-5-5-5-5-5-5-5-8-3-8-3-3-3-5-5-5-5-5-5-5-5-5-5-5-5-5-5-5-5-8-3-0-3-5-5-|
D|-5-5-5-5-5-5-5-5-5-5-5-5-5-5-5-5-8-3-8-3-3-3-5-5-5-5-5-5-5-5-5-5-5-5-5-5-5-5-8-3-0-3-5-5-|

E|-----------------------------------------------------------------------------------------|
B|-----------------------------------------------------------------------------------------|
G|-----------------------------------------------------------------------------------------|
D|-5-5-5-5-5-5-5-5-5-5-5-5-5-5-5-5-8-3-8-3-3-3-5-5-5-5-5-5-5-5-5-5-5-5-5-5-5-5-8-3-0-3-5-5-|
A|-5-5-5-5-5-5-5-5-5-5-5-5-5-5-5-5-8-3-8-3-3-3-5-5-5-5-5-5-5-5-5-5-5-5-5-5-5-5-8-3-0-3-5-5-|
D|-5-5-5-5-5-5-5-5-5-5-5-5-5-5-5-5-8-3-8-3-3-3-5-5-5-5-5-5-5-5-5-5-5-5-5-5-5-5-8-3-0-3-5-5-|

E|--------------|
B|--------------|
G|--------------|
D|-8-3-0-3--5-5-|
A|-8-3-0-3--5-5-|
D|-8-3-0-3--5-5-|

Transição:
(guitarra 1)
E|-----------------------------|
B|-11-----10-----11-----10-----|
G|-12-----10-----12-----10-----|
D|-----------------------------|
A|-----------------------------|
D|-----------------------------|

(guitarra 2)
E|------------------------------------|
B|------------------------------------|
G|------------------------------------|
D|-5------8------5------8-------------|
A|-5------8------5------8--00000000---|
D|-5------8------5------8--00000000---|
                           ........

Ponte:
E|---------------------------------|
B|---------------------------------|
G|---------------------------------|
D|---------------------------------|   (8x)
A|-------3-------------------------|
D|-3h5-5---5-5-5-5-3-3-3-3-1-1-1-1-|

E|---------------------------------|
B|---------------------------------|
G|---------------------------------|
D|-5---8-3---8-3--5-----8-3-0-3--5-|
A|-5---8-3---8-3--5-----8-3-0-3--5-|
D|-5---8-3---8-3--5-----8-3-0-3--5-|

Refrão:
E|------------------------------------------------------------------------------------------|
B|------------------------------------------------------------------------------------------|
G|------------------------------------------------------------------------------------------|
D|-5-5-5-5-5-5-5-5-5-5-5-5-5-5-5-5-8-3--8-3-3-3-5-5-5-5-5-5-5-5-5-5-5-5-5-5-5-5-8-3-0-3-5-5-|
A|-5-5-5-5-5-5-5-5-5-5-5-5-5-5-5-5-8-3--8-3-3-3-5-5-5-5-5-5-5-5-5-5-5-5-5-5-5-5-8-3-0-3-5-5-|
D|-5-5-5-5-5-5-5-5-5-5-5-5-5-5-5-5-8-3--8-3-3-3-5-5-5-5-5-5-5-5-5-5-5-5-5-5-5-5-8-3-0-3-5-5-|

E|------------------------------------------------------------------------------------------|
B|------------------------------------------------------------------------------------------|
G|------------------------------------------------------------------------------------------|
D|-5-5-5-5-5-5-5-5-5-5-5-5-5-5-5-5-8-3--8-3-3-3-5-5-5-5-5-5-5-5-5-5-5-5-5-5-5-5-8-3-0-3-5-5-|
A|-5-5-5-5-5-5-5-5-5-5-5-5-5-5-5-5-8-3--8-3-3-3-5-5-5-5-5-5-5-5-5-5-5-5-5-5-5-5-8-3-0-3-5-5-|
D|-5-5-5-5-5-5-5-5-5-5-5-5-5-5-5-5-8-3--8-3-3-3-5-5-5-5-5-5-5-5-5-5-5-5-5-5-5-5-8-3-0-3-5-5-|

E|--------------|---------------------|
B|--------------|---------------------|
G|--------------|---------------------|
D|-8-3-0-3--5-5-|-8-8-3-3-0-0-3-3-5-5-|
A|-8-3-0-3--5-5-|-8-8-3-3-0-0-3-3-5-5-|
D|-8-3-0-3--5-5-|-8-8-3-3-0-0-3-3-5-5-|

Final:

E|---------------------------------|---|
B|---------------------------------|-3-|
G|---------------------------------|-3-|
D|---------------------------------|-1-|
A|-------3-------------------------|-1-|
D|-3h5-5---5-5-5-5-3-3-3-3-1-1-1-1-|-1-|

HERRAMIENTAS ACORDESWEB:


LETRA DE LA CANCIÓN:

Ver la letra sola (sin acordes)

DESCARGAR PDF / IMPRIMIR CANCIÓN



ACORDES PARA GUITARRA

PIANO UKELELE


TOP 20: Las más tocadas de 10 Years


Toca una Canción al Azar de 10 Years

Acordes

Cerrar

10.03


408