Dying Youth
10 Years
Acordes

Subida por elflacosagrado
Álbum: Division ( 2008)



Cambiar Cifrado
Americano Latino

Cambiar Tonalidad
-1 +1

Partir Pantalla Imprimir FAQ

+A
-A
E|-------------------------------------------------------------------------|
B|-------------------------------------------------------------------------|
G|-------------------------------------------------------------------------|
D|--------9---9---5/10---9---9--------9---9-------7---5-4h5p4--------------|
A|----5/7---7-----------------------7---7---7---7---7----------------------|
E|--0-----------3------8---8---8--0-----------5----------------------------|

E|-------------------------------------------------------------------------|
B|-------------------------------------------------------------------------|
G|--------------------------------------------------7/9--------------------|
D|--------9---9---5/10---9---10p9------9---9------7-----10p9---------------|
A|----5/7---7------------------------7---7---7--5--------------------------|
E|--0-----------3------8---8-------0---------------------------------------|
x2
E|---0-------0---0---0-0-0-------0---0---0-0-0-----------------------------|
B|---0-------0---0---0-0-1-------1---1---1-1-0-----------------------------|
G|---0-------0---0---0-0-0-------0---0---0-0-0-----------------------------|
D|---2-------2---2---2-2-2-------2---2---2-2-2-----------------------------|
A|---2-------2---2---2-2-3-------3---3---3-3-2-----------------------------|
E|---0-------0---0---0-0-0-------0---0---0-0-0-----------------------------|
x4
E|-----5--3h5p3p0----------------5--3h5p3p0--------------------------------|
B|----------------3p0--1--------------------3p0--1-------------------------|
G|-----------------------0-------------------------0-----------------------|
D|-------------------------2-------------------------2---------------------|
A|-------------------------------------------------------------------------|
E|---0-------------------------0-------------------------------------------|
x2
E|-------------------------------------------------------------------------|
B|-------------------------------------------------------------------------|
G|-------9----7-----------------------9----7-------------------------------|
D|-----9---10---9--------7----------9---10---9--------7--------------------|
A|----------------7h9-10---9-10----------------7h9-10---9-10---------------|
E|---0----------------------------0----------------------------------------|

E|-------------------------------------------------------------------------|
B|-------------------------------------------------------------------------|
G|-------9----7-----------------------9----7-------------------------------|
D|-----9---10---9--------7----------9---10---9-10-7-9----7-----------------|
A|----------------7h9-10---9-10-----------------------10---9---------------|
E|---0----------------------------0----------------------------------------|

E|-------------------------------------------------------------------------|
B|-------------------------------------------------------------------------|
G|-------9----7-----------------------9----7-------------------------------|
D|-----9---10---9--------7----------9---10---9--------7--------------------|
A|----------------7h9-10---9-10----------------7h9-10---9-10---------------|
E|---0----------------------------0----------------------------------------|

E|-------------------------------------------------------------------------|
B|-------------------------------------------------------------------------|
G|-------9----7------------------------------------------------------------|
D|-----9---10---9--------7-------------------------------------------------|
A|----------------7h9-10---9-10-------7------------------------------------|
E|---0----------------------------0-7---8-10-7-8-5-7-3-5-2-----------------|

E|-------------------------------------------------------------------------|
B|-------------------------------------------------------------------------|
G|-------------------------------------------------------------------------|
D|--------9---9---5/10---9---9--------9---9-------7---5-4h5p4--------------|
A|----5/7---7-----------------------7---7---7---7---7----------------------|
E|--0-----------3------8---8---8--0-----------5----------------------------|

E|--------------------------------------------------------------|-0--------|
B|--------------------------------------------------------------|--0-------|
G|--------------------------------------------------7/9---------|---0------|
D|--------9---9---5/10---9---10p9------9---9------7-----10p9----|----2-----|
A|----5/7---7------------------------7---7---7--5---------------|-----2----|
E|--0-----------3------8---8-------0----------------------------|------0---|

ACORDES PARA GUITARRA

PIANO UKELELE


COMENTARIOS

Aún no hay comentarios,

¡escribe el primero!

Escribe una pregunta, duda o comentario sobre esta canción, te responderemos a la brevedad.

Las más tocadas de 10 Years

Toca una Canción al Azar de 10 Years