Compartir


Imprimir FAQ
+A
-A

Texto

Desplazamiento

Transportador

Color de Fondo

Archivos

-A
+A
Intro
E|--------------------------------------------------|
B|--------------------------------------------------|
G|--------------------------------------------------|
D|------2---2-------2---2/1-----1---1-------1---1---|
A|----2---2---2---2---2-------1---1---1---1---1---1-|
D|--2-----------2-----------1-----------1-----------|

Verso 2x:
E|----------------|------------------|
B|--5-5-4-4-----4-|--4-4b(5)-----5-4-|
G|----------4-6---|----------4-6-----|
D|----------------|------------------|
A|----------------|------------------|
D|----------------|------------------|

Pré-Refrão 3x:
E|--------------|----------------------------|
B|--------------|----------------------------|
G|--8-8-8-8-8---|----------------------------|
D|--8-8-8-8-8-9-|----------------------------|
A|--6-6-6-6-6-9-|--------6-6-6--4-4-4--9-9-9-|
D|------------9-|--9-9-9---------------------|

Refrão 2x:
E|------------------------------|
B|------------------------------|
G|--8-8-------------------------|
D|--8-8-9-8--9--9--8--6-6--4--6-|
A|--6-6-9-8--9--9--8--6-6--4--6-|
D|------9-8--9--9--8--6-6--4--6-|

Ponte 4x:
E|--------------------------------------------|
B|---------2/4-5-4--------2/4-4-4--4-4--4-4-4-|
G|--------------------------------------------|
D|--0-0--0---------0-0--0---------------------|
A|--0-0--0---------0-0--0---------------------|
D|--0-0--0---------0-0--0---------------------|
    . .  .         . .  .
E|--------------------------------------------|
B|--------------------------------------------|
G|----------8-8--8--9-8--8-8--8--8-8-8--6-6-6-|
D|----------8-8--8--9-8--8-8--8--8-8-8--6-6-6-|
A|------4-6-6-6--6--7-6--6-6--6--6-6-6--4-4-4-|
D|--6-6---------------------------------------|

HERRAMIENTAS ACORDESWEB:


LETRA DE LA CANCIÓN:

Ver la letra sola (sin acordes)

OTRAS VERSIONES DE LA MISMA CANCIÓN:

Ver. 2

DESCARGAR PDF / IMPRIMIR CANCIÓN



ACORDES PARA GUITARRA

PIANO UKELELE


TOP 20: Las más tocadas de 10 Years


Toca una Canción al Azar de 10 Years

Acordes

Cerrar

22.09


166