So Long, Good-bye
10 Years
Acordes

Subida por ram63
Álbum: Division ( 2008)



Cambiar Cifrado
Americano Latino

Cambiar Tonalidad
-1 +1

Partir Pantalla Imprimir FAQ

+A
-A
Intro/Verse
E |---------------------3--0--|
B |---------------------3--1--|
G |-------5---------4---4--2--|
D |---7---------5-------5--2--|
A |-0---0-----3---3-----5--0--|
E |---------------------3-----|

Pre-chorus
E |-3--0--3--0--|
B |-3--1--3--1--|
G |-4--2--4--2--|
D |-5--2--5--2--|
A |-5--0--5--0--|
E |-3-----3-----|

Chorus
E |-0--3--0-0----|
B |-1--0--1-0h1--|
G |-0--0--2-2----|
D |-2--0--2-2----|
A |-3--2--0-0----|
E |----3---------|

Verse "so why deny that you and I lead"...
E |---------------------3--0-- e|-------------------3--0--|
B |---------------------3--1-- b|-----5----3---3----3--1--|
G |-------5---------4---4--2-- x4 then g|---5---5----4---4--4--2--|
D |---7---------5-------5--2-- d|-------------------5--2--|
A |-0---0-----3---3-----5--0-- a|-0-----------------5--0--|
E |---------------------3----- e|-------------------3-----|

Piano bridge
E |-------3-----------------------3-------------7---------3-------------|
B |---------5-3-5-------------------5-3-5---3-5-------------5-3-5-3-----|
G |-5-4-----------5-4-5-----5-4-----------5---------5-4-------------5-4-|
D |-----5---------------5-------5-----------------------5---------------|
A |---------------------------------------------------------------------|
E |---------------------------------------------------------------------|

E |-------3-------------7---8-7------8-7------|
B |---------5-3-5---3-5---------8-5~-----8-5~-|
G |-5-4-----------5---------------------------|
D |-----5-------------------------------------|
A |-------------------------------------------|
E |-------------------------------------------|

Pre-chorus

Final Chorus with some tweaks
E |-0--3--0-0-0-0-----0--3--0--0-0-0-0-0-0-|
B |-1--0--1-5-3-3/1---1--0--1--1-0-0-1-0-0-|
G |-0--0--2-0-0-0-----0--0--2--2-2-2-2-2-2-|
D |-2--0--2-----------2--0--2--2-2-2-2-2-2-|
A |-3--2--0-----------3--2--0--0-0-0-0-0-0-|
E |----3-----------------3-----------------|

ACORDES PARA GUITARRA

PIANO UKELELE


COMENTARIOS

Aún no hay comentarios,

¡escribe el primero!

Escribe una pregunta, duda o comentario sobre esta canción, te responderemos a la brevedad.

Las más tocadas de 10 Years

Toca una Canción al Azar de 10 Years