Empires
10 Years
Acordes

Subida por ange
Álbum: The Autumn Effect ( 2005)


Más Versiones
Ver. 2

Cambiar Cifrado
Americano Latino

Cambiar Tonalidad
-1 +1

Partir Pantalla Imprimir FAQ

+A
-A
Intro                              T=10
eb(-----------------------)
bb(-----------------------)
gb(-----------------------)
db(-----------------------)
ab(-------666-555-333-111-)
Db(--0-00-----------------)

Versos
eb(-----------------------)
bb(-----------------------)
gb(-----------------------)
db(--0-00-666-555-333-111-)
ab(--0-00-666-555-333-111-)
Db(--0-00-666-555-333-111-)

Refrão
eb(--------------------------------------------------)
bb(--TT-TT-TT-TT-TT-TT-TT-TT-TT-TT-TT-TT-TT-TT-TT-TT-)
gb(--xx-xx-xx-xx-xx-xx-xx-xx-xx-xx-xx-xx-xx-xx-xx-xx-)
db(--77-77-77-77-77-77-77-77-77-77-77-77-77-77-77-77-)
ab(--77-77-77-77-77-77-77-77-77-77-77-77-77-77-77-77-)
Db(--77-77-77-77-77-77-77-77-77-77-77-77-77-77-77-77-)

Fim do segundo verso
eb(--------)
bb(--------)
gb(--------)
db(--------)
ab(--0-0-0-)
Db(--0-0-0-)
pm. . .

--- Antes da segunda ponte
eb(----------------)
bb(----------------)
gb(----------------)
db(--777-77-777-34-)
ab(--777-77-777-34-)
Db(--777-77-777-34-)

Ponte
eb(-------------------)(-----------)
bb(-------------------)(-----------)
gb(--5b-------5b------)(-----------)
db(--3--88-00-3--8-12-)(-----------)
ab(--3--88-00-3--8-12-)(--0-000-00-)
Db(--3--88-00-3--8-12-)(--0-000-00-)

ACORDES PARA GUITARRA

PIANO UKELELE


COMENTARIOS

Aún no hay comentarios,

¡escribe el primero!

Escribe una pregunta, duda o comentario sobre esta canción, te responderemos a la brevedad.

Las más tocadas de 10 Years

Toca una Canción al Azar de 10 Years