as WASTELAND | 10 Years | Acordes

Wasteland

10 Years

Acordes

Killing All That Holds You (2004)
Subida por santicolque


Más Versiones
Ver. 2

Cambiar Cifrado
Americano Latino

Cambiar Tonalidad
-1 +1

Partir Pantalla Imprimir FAQ

+A
-A


Ver solo la LETRA
Tuning:Db Gb B E Ab Db

For their first single of Autumn Effect, 10 Years combines the use of 2 guitars
and drop tuning 1 1/2 steps down to create a great blend of soft and heavy rock.
This song is relatively easy to play.


Intro

Gtr 1. and 2 clean

let the open notes ring

Db|------0-----------------0-------------------------------------------------|
Ab|--------------------------------------------------------------------------|
E |--------------------------------------------------------------------------|
B |--------------------------------------------------------------------------|
Gb|--3-------3----/----5---------7-------------------------------------------|
Db|--1-------1----/----3---------5-------------------------------------------|


gtr.1 and 2 w/dist.

Db|-------0-------------------0----------------------------------------------|
Ab|--------------------------------------------------------------------------|
E |--------------------------------------------------------------------------|
B |---3------/-----7-----5----------7--7--7----------------------------------|
Gb|---3------/-----5-----5----------5--5--5----------------------------------|
Db|---1------------------3---------------------------------------------------|

Verse

gtr. 1 and 2 w/dist.

P.M. throughout

Db|--------------------------------------------------------------------------|
Ab|--------------------------------------------------------------------------|
E |--------------------------------------------------------------------------|
B |-7-7-7-7-10-10-10-9-9-9-------------------------7-7-7-7-10-10-10-9-9-9----|
Gb|------------------------10-10-10-10-10-10-10-10------------------------10-|
Db|--------------------------------------------------------------------------|

cont.

Db|--------------------------------------------------------------------------|
Ab|--------------------------------------------------------------------------|
E |--------------------------------------------------------------------------|
B |------------------------------9-9-9-10-10-10-10-10-10-10-10---------12-12-|
Gb|-10-10-10-10-10-10-10-8-8-8-8-------------------------------7-7-7-7-------|
Db|--------------------------------------------------------------------------|

cont.

Db--------------------------------------------------------------------------|
Ab|-------------------------------------------------------------------------|
E |-------------------------------------------------------------------------|
B |-------------------------------------------------------------------------|
Gb|-12-9-9-9-9-9-9-9-9------------------------------------------------------|
Db|-------------------------------------------------------------------------|

Chorus

Gtr 1. and 2 w/ dist. listen closely to hear octaves

Db|----0--------------0-----------------------------------------------------|
Ab|-------------------------------------------------------------------------|
E |-----------------------------------14-14-14-14-14-14/16-16-16/17-17-17---|
B |-3-----/---7----5-----7-7-7---7-----x--x--x--x--x--x/-x--x--x/-x--x--x---|
Gb|-3-----/---5----5-----5-5-5---7----12-12-12-12-12-12/14-14-14/15-15-15---|
Db|-1--------------3-------------5------------------------------------------|

Bridge

Gtr. 1 w/dist.

Db|-------------------------------------------------------------------------|
Ab|-------------------------------------------------------------------------|
E |-------------------------------------------------------------------------|
B |----7-7---7-7---7-7-7-7-7-7-7-7-5-5-5-5-5-5-5-5--------------------------|
Gb|----7-7---7-7---7-7-7-7-7-7-7-7-5-5-5-5-5-5-5-5--------------------------|
Db|----5-5---5-5---5-5-5-5-5-5-5-5-3-3-3-3-3-3-3-3--------------------------|

Gtr. 2 w/dist.

Db|-------------------------------------------------------------------------|
Ab|-------------------------------------------------------------------------|
E |---------14-14-14-14-14-14-14-1412-12-12-12-12-12-12-12-----------------|
B |----------x--x--x--x--x--x--x--x-x--x--x--x--x--x--x--x-----------------|
Gb|---------12-12-12-12-12-12-12-1210-10-10-10-10-10-10-10-----------------|
Db|-------------------------------------------------------------------------|

End is same as chorus

| / slide up
| slide down
| h hammer-on
| p pull-off
| ~ vibrato
| + harmonic
| x Mute note

NUEVO FORO DE MÚSICA

¿Tienes alguna duda, consulta, pregunta, consejo o algo para compartir sobre esta canción?

¡Puedes abrir un hilo en el FORO para que la comunidad te ayude! Hacer una pregunta

ACORDES PARA GUITARRA

PIANO UKELELE


Las más tocadas de 10 Years