Seasons To Cycles
10 Years
Acordes

Subida por adriancastro024
Álbum: The Autumn Effect ( 2005)



HERRAMIENTAS

Cambiar Cifrado
Americano Latino

Cambiar Tonalidad
-1 +1

Partir Pantalla Imprimir FAQ

+A
-A
LETRA CON ACORDES

¿Tu Guitarra esta Afinada? PRUEBA NUESTRO NUEVO AFINADOR

OK this is my 1st tab ever but im prettie sure this is all correct so... 
Intro, verse 1. Gtr 1.
e|---------------------------------------|
B|---------------------------------------|
G|---------------------------------------|
D|---4---6---4--------4---6---4----------|   repeat as nessecary
A|--4---4---3--------4---4---3-----------|
E|-2---2---2--------2---2---2------------|


Chorus
Gtr 1.
e|---------------------------------------|
B|---------------------------------------|
G|---------------------------------------|   reapeat 4 times
D|---4---6---4--------4---6---4----------|     
A|--4---4---3--------4---4---3-----------|
E|-2---2---2--------2---2---2------------|
                 
Gtr 2.
e|---------------------------------------|
B|---------------------------------------|
G|---------------------------------------|    Reapeat 3 times on the 4th
D|-44444444-44444444-2222222222222222----|    time stop after the middle 
A|-44444444-44444444-2222222222222222----|    part(where every sting is 
E|-22222222-44444444-2222222222222222----|    on fret 4)

****************************
Verse 2.
Gtr 1.
e|---------------------------------------|
B|---------------------------------------|
G|---------------------------------------|
D|---4---6---4--------4---6---4----------|   
A|--4---4---3--------4---4---3-----------|
E|-2---2---2--------2---2---2------------|

e|---------------------------------------|
B|---------------------------------------|
G|---------------------------------------|
D|---4---6---4--------4---6---4-----4b---|   after this part is played
A|--4---4---3--------4---4---3----4b-----|   repeat the part above.
E|-2---2---2--------2---2---2------------|

Repeat Chorus

Interlude
gtrs 1. and 2.
e|---------------------------------------|
B|---------------------------------------|
G|---------------------------------------|    on this part strok up and down
D|-44444444-44444444-2222222222222222----|    
A|-44444444-44444444-2222222222222222----|     
E|-22222222-44444444-2222222222222222----

Outro
e|---------------------------------------|
B|---------------------------------------|
G|---------------------------------------|
D|---4---6---4--------4---6---4----------|   till end
A|--4---4---3--------4---4---3-----------|
E|-2---2---2--------2---2---2------------|

ok thats it enjoy n if there are any unmarked parts just figue them out 
urself cuz most of the the parts r in the same area... peace////////////////// ¿Te Animas? Sube una canción a este sitio. //////////////////

ACORDES PARA GUITARRA

PIANO UKELELE


COMENTARIOS

Aún no hay comentarios,

¡escribe el primero!

Escribe una pregunta, duda o comentario sobre esta canción, te responderemos a la brevedad.

Las canciones más tocadas de 10 Years

Toca una Canción al Azar de 10 Years

23.29


Nuestro servidor se demoró 0.01 segundos en generar esta página. Eso fue realmente muy rápido!