Dead In The Water
10 Years
Acordes

Subida por Natasha
Álbum: Feeding the Wolves ( 2010)


Más Versiones
Ver. 2

Cambiar Cifrado
Americano Latino

Cambiar Tonalidad
-1 +1

Partir Pantalla Imprimir FAQ

+A
-A
Intro:

E|-0-0---------------------------------------|
B|-0-0---------------------------------------|
G|-0-0-----5--3--5-----5-----5--3--5-----5---|
D|-5-5--5--5--3--5--3--5--5--5--3--5--3--5---|
A|-5-5--5--3--1--3--3--3--5--3--1--3--3--3---|
D|-5-5--5-----------3-----5-----------3------|

Verse:
E|--0---0---0---0------|
B|--0---0---0---0------|
G|--0---0---0---0------|
D|--5---5---5---5------|
A|--5---5---5---5------|
D|--5---5---5---5------|

Pré-Refrão:
E|-------------------------------------------------------------|
B|-------------------------------------------------------------|
G|-----------5-5--3-3-3-3--7-7--5-5-5-5------------------------|
D|--5-5-5-5--5-5--3-3-3-3--7-7--5-5-5-5--5--3-3-3-3p0h3p0h3p0--|
A|--5-5-5-5--3-3--1-1-1-1--5-5--3-3-3-3--5--3-3-3-3p0h3p0h3p0--|
D|--5-5-5-5------------------------------5--3-3-3-3p0h3p0h3p0--|

E|-------------------------------------------------------------|
B|-------------------------------------------------------------|
G|----------5-5--3-3-3-3--7-7--5-5-5-5--9-9-7-7-7-7-7-7-7-7----|
D|-5-5-5-5--5-5--3-3-3-3--7-7--5-5-5-5--9-9-7-7-7-7-7-7-7-7----|
A|-5-5-5-5--3-3--1-1-1-1--5-5--3-3-3-3--7-7-5-5-5-5-5-5-5-5----|
D|-5-5-5-5-----------------------------------------------------|

Refrão:
E|----------------------------------------------|
B|----------------------------------------------|
G|----5--3--5--------------------5--3--5-----5--|
D|-5--5--3--5--3--------------5--5--3--5--3--5--| (2x)
A|-5--3--1--3--3-5-3-0-3------5--3--1--3--3--3--|
D|-5-----------3---------0-3--5-----------3-----|

Verso:
E|--0---0---0---0------|
B|--0---0---0---0------|
G|--0---0---0---0------|
D|--5---5---5---5------|
A|--5---5---5---5------|
D|--5---5---5---5------|

Pré-Refrão:
E|-------------------------------------------------------------|
B|-------------------------------------------------------------|
G|-----------5-5--3-3-3-3--7-7--5-5-5-5------------------------|
D|--5-5-5-5--5-5--3-3-3-3--7-7--5-5-5-5--5--3-3-3-3p0h3p0h3p0--|
A|--5-5-5-5--3-3--1-1-1-1--5-5--3-3-3-3--5--3-3-3-3p0h3p0h3p0--|
D|--5-5-5-5------------------------------5--3-3-3-3p0h3p0h3p0--|

E|-------------------------------------------------------------|
B|-------------------------------------------------------------|
G|----------5-5--3-3-3-3--7-7--5-5-5-5--9-9-7-7-7-7-7-7-7-7----|
D|-5-5-5-5--5-5--3-3-3-3--7-7--5-5-5-5--9-9-7-7-7-7-7-7-7-7----|
A|-5-5-5-5--3-3--1-1-1-1--5-5--3-3-3-3--7-7-5-5-5-5-5-5-5-5----|
D|-5-5-5-5-----------------------------------------------------|

Refrão:
E|----------------------------------------------|
B|----------------------------------------------|
G|----5--3--5--------------------5--3--5-----5--|
D|-5--5--3--5--3--------------5--5--3--5--3--5--| (2x)
A|-5--3--1--3--3-5-3-0-3------5--3--1--3--3--3--|
D|-5-----------3---------0-3--5-----------3-----|

Ponte:
E|---------------------------|
B|---------------------------|
G|---------------------------|
D|-5-5-5-5--5~---------------|
A|-5-5-5-5--5~--5-3-0-3------|
D|-5-5-5-5--5~----------0-3--|
. . . .

Refrão:
E|----------------------------------------------|
B|----------------------------------------------|
G|----5--3--5--------------------5--3--5-----5--|
D|-5--5--3--5--3--------------5--5--3--5--3--5--| (2x)
A|-5--3--1--3--3-5-3-0-3------5--3--1--3--3--3--|
D|-5-----------3---------0-3--5-----------3-----|

E|------------|
B|------------|
G|------------|
D|-0-0-0-0-0--|
A|-0-0-0-0-0--|
D|-0-0-0-0-0--|
. . . . .
E|---------------------|
B|---------------------|
G|------------------5--|
D|-5--10--8--10--3--5--|
A|-5--10--8--10--3--3--|
D|-5--10--8--10--3-----|

ACORDES PARA GUITARRA

PIANO UKELELE


COMENTARIOS

Aún no hay comentarios,

¡escribe el primero!

Escribe una pregunta, duda o comentario sobre esta canción, te responderemos a la brevedad.

Las más tocadas de 10 Years

Toca una Canción al Azar de 10 Years