All Your Lies
10 Years
Acordes

Subida por Gary
Álbum: Division ( 2008)


Más Versiones
Ver. 2

Cambiar Cifrado
Americano Latino

Cambiar Tonalidad
-1 +1

Partir Pantalla Imprimir FAQ

+A
-A
D|-----------------------------|
A|-----------------------------|
F|-------------------------0---|
C|----3-------3-----3----3-----|
G|--5------5------5------------|
C|0------0------0-----0--------|

D|-----------------------------------|
A|-----------------------------------|
F|-----------------------------------|
C|-----------------------------3333--|
G|-----------------------------3333--|
C|-0--13-12--0-13-12-0-13-12---3333--|

D|-------------------------------------------------------------------------|
A|-------------------------------------------------------------------------|
F|-------------------------------------------------------------------------|
C|--55555--88888---1010101010----------------------------------------------|
G|--55555--88888---1010101010----------------------------------------------|
C|--55555--88888---1010101010-----0-13-12----0-13-12----0-13-12----0-13-12-|

|-----------------------------------|
|-----------------------------------|
|-----------------------------------|
|0~---------------------------------|
|0~---------------------------------|
|0~---------------------------------|

E|----------------------------------------------------------|
B|----------------------------------------------------------|
G|----------------------------------------------------------|
D|----------------------------------------------------------|
A|--------------------3---------------------------0--3-5-6--|
D|--0---3--0--1--0-------1--3--0---0--1--0--3--5------------|

D|-----------------------------------------------------|
A|-----------------------------------------------------|
F|-------------------------------0---------------------|
C|000-h3-000-h3---000--h3-----3------------------------|
G|000--0-000--0---000---0------------------------------|
C|000--0-000--0---000---0------------------------------|
P.M... . ... . ... .

ACORDES PARA GUITARRA

PIANO UKELELE


COMENTARIOS

Aún no hay comentarios,

¡escribe el primero!

Escribe una pregunta, duda o comentario sobre esta canción, te responderemos a la brevedad.

Las más tocadas de 10 Years

Toca una Canción al Azar de 10 Years